Song name
# A B C D E F G H I J K L M N O P Q R S T U V W X Y Z

Chiodos - We Swam From Albatross The Day We Lost Kailey Cost tab

-------------------------------------------------------------------------------
	  We Swam From Albatross the Day We Lost Kailey Cost
			   by:CHIODOS
-------------------------------------------------------------------------------
Tabbed by: guitarmaniac182

Email: tribesjam@yahoo.com

Tuning: Drop D

my first tab...tell me if its good. i think for the most part its
accurate. The only thing i'm unsure of is the ending breakdown part. this is
just one guitar so the intro its not complete but this is what you mainly hear.
i'm not so good at tabbing out strumming patterns but this song isnt really
that hard to figure out the pattern. But i attempted to give the number of strums.
could be wrong. So just listen to the song for strumming if mine is wrong.

INTRO
e|--------------------------------------------------------------------------|
B|--------------------------------------------------------------------------|
G|--------------------------------------------------------------------------|
D|0--0--0-----0--0--0-----0--0--0-------------------------------------------|
A|0--0--0-----0--0--0-----0--0--0-------------------------------------------|
D|0--0--0-----0--0--0-----0--0--0-------------------------------------------|(x2)


INTRO PT 2
e|--------------------------------------------------------------------------|
B|--------------------------------------------------------------------------|
G|--------------------------------------------------------------------------|
D|--------------------------------------------------------------------------|
A|-8------8-7-8------7-8-3---8-----8-7-8-----7-8--12------------------------|
D|---000--------000------------000-------000--------------------------------|
PM   ...        ...            ...       ...
(the second time, do the 7-8-3 part both times)

VERSE
e|--------------------------------------------------------------------------|
B|--------------------------------------------------------------------------|
G|-10------14-------17------19----------------------------------------------|
D|-x-------x--------x-------x-----------------------------------------------|
A|-8(x16)--12(x16)--15(x8)--17(x8)------------------------------------------|
D|--------------------------------------------------------------------------|


e|--------------------------------------------------------------------------|
B|--------------------------------------------------------------------------|
G|-10------12-------14------17--------19tp-(just before chorus)-------------|
D|-x-------x--------x-------x-----------------------------------------------|
A|-8(x16)--10(x16)--12(x8)--15(x8)------------------------------------------|
D|--------------------------------------------------------------------------|

CHORUS
e|--------------------------------------------------------------------------|
B|--------------------------------------------------------------------------|
G|-14-------10------9------12-----------------------------------------------|
D|-x--------x-------x------x------------------------------------------------|
A|-12(x16)--8(x8)---7(x4)--10(x4)-------------------------------------------|
D|--------------------------------------------------------------------------|

e|--------------------------------------------------------------------------|
B|--------------------------------------------------------------------------|
G|-15-------12------6------9------------------------------------------------|
D|-x--------x-------x------x------------------------------------------------|
A|-13(x16)--10(x8)--4(x4)--7(x4)--------------------------------------------|
D|--------------------------------------------------------------------------|

REPEAT INTRO PART 2, VERSE AND CHORUS ONCE MORE

BREAKDOWN/OUTRO
e|--------------------------------------------------------------------------|
B|--------------------------------------------------------------------------|
G|--------------------------------------------------------------------------|
D|--------------------------------------------------------------------------|
A|---------------6-5----------------6-5----------------6-5------------------|
D|-6p5h6p5h6p5h6------6p5h6p5h6p5h6------6p5h6p5h6p5h6----------------------|

e|--------------------------------------------------------------------------|
B|--------------------------------------------------------------------------|
G|--------------------------------------------------------------------------|
D|--------------------------------------------------------------------------|
A|----------------6*--------------------------------------------------------|
D|-6p5h6p5h6p5h6------------------------------------------------------------|
*pinch harmonic

e|--------------------------------------------------------------------------|
B|--------------------------------------------------------------------------|
G|-7-7----7-7-------7-7---------7-7----7-7------7-7----7-7------------------|
D|-x-x----x-x-------x-x---------x-x----x-x------x-x----x-x------------------|
A|-5-5----5-5-------5-5---------5-5----5-5------5-5----5-5------------------|
D|-----00-----00000-----0000000-----00----00000-----00-----00---------------|
PM     ..     .....     .......     ..    .....     ..     ..

(NOTE: [ABOVE] I HAD A HARD TIME TABBING THE STRUMMING ON THE 6TH STRING SO
FIGURE OUT THE WHOLE RHYTHM YOURSELF...THIS IS JUST THE BASIC IDEA OF HOW TO PLAY
IT)


e|--------------------------------------------------------------------------|
B|--------------------------------------------------------------------------|
G|--------------------------------------------------------------------------|
D|--------------------------------------------------------------------------|
A|------7--8-----7--3-2--2*----7--8--333-222--------------------------------|
D|--00--7--8--0--7--3-2-----0--7--8--333-222--------------------------------|
PM  ..        .             .        ... ...

e|--------------------------------------------------------------------------|
B|--------------------------------------------------------------------------|
G|--------------------------------------------------------------------------|
D|--------------------------------------------------------------------------|
A|------7--8-----7--3-2--2*----7--8--333-2-1-0------------------------------|
D|--00--7--8--0--7--3-2-----0--7--8--333-2-1-0------------------------------|
PM  ..        .             .        ... . . .

e|--------------------------------------------------------------------------|
B|--------------------------------------------------------------------------|
G|--------10-----------14------------10-------------------------------------|
D|--0-0-0-x-----0-0-0--x------0-0-0--x-----0-0-0----------------------------|
A|--0-0-0-8(x6)-0-0-0--12(x6)-0-0-0--8(x6)-0-0-0----------------------------|
D|--0-0-0-------0-0-0---------0-0-0--------0-0-0----------------------------|


| /  slide up
| \  slide down
| h  hammer-on
| tp tremolo pick
| p  pull-off
| ~  vibrato
| +  harmonic
| x  Mute note
===============================================================================
Tap to rate this tab
# A B C D E F G H I J K L M N O P Q R S T U V W X Y Z