Song name
# A B C D E F G H I J K L M N O P Q R S T U V W X Y Z

Chiodos - Bulls Make Money Bears Make Money Pigs Get Slaughtered tab

Intro x 4 (Listen for strum pattern)

Guitar 1
E|-5-05-05-5-05-05-10-0 10-0 10-6-06-06-|
B|-6-66-66-6-66-66-11-1111-1111-8-88-88-|
G|-7-77-77-7-77-77-12-1212-1212-9-99-99-|
D|--------------------------------------|
A|--------------------------------------|
D|--------------------------------------|

Verse#1 x 4

Guitar 1
E|-----------------|
B|-----------------|
G|-----------------|
D|-0---00---5--222-|
A|-0---00---5--222-|
D|-0---00---5--222-|

Guitar 2 (Comes in on 3rd guitar 1 part)
E|-5-05-05-5-05-05-10-0 10-0 10-6-06-06-|
B|-6-66-66-6-66-66-11-1111-1111-8-88-88-|
G|-7-77-77-7-77-77-12-1212-1212-9-99-99-|
D|--------------------------------------|
A|--------------------------------------|
D|--------------------------------------|

Pre-Chorus (Listen For Strum Pattern)

Guitar 2
E|-5-05-05-5-05-05-5-05-05-5----|
B|-6-66-66-6-66-66-6-66-66-6----|
G|-7-77-77-7-77-77-7-77-77-7----|
B|------------------------------|
G|------------------------------|
D|------------------------------|
A|------------------------------|
D|------------------------------|

Chorus#1 x 2

Both Guitars
E|-------------------------------------|
B|-------------------------------------|
G|---------22222222--------------------|
D|00000000-22222222-55555555-2222-3333-|
A|00000000-00000000-55555555-2222-3333-|
D|00000000----------55555555-2222-3333-|

Inerlude x2

Guitar 1
E|-----------6------------------------------------|
B|-10---8------8----6---------10---8---11--8------|
G|---10---9-7----9----7-6-7/10--10---9---9---7-6--|
D|----------------------------------------------7-|
A|------------------------------------------------|
D|------------------------------------------------|

Verse#2 x 2

Guitar 1
E|----------------|
B|----------------|
G|----------------|
D|-0---00---5--222|
A|-0---00---5--222|
D|-0---00---5--222|

Verse Variation x2

Guitar 1
E|----------------|
B|----------------|
G|----------------|
D|0000000055552222|
A|0000000055552222|
D|0000000055552222|

Breakdown Pt. 1

Guitar 1
E|-----------------------------------------------------|
B|-----------------------------------------------------|
G|-----------------------------------------------------|
D|0-0-0-0----------0---0-0-0-0----------0---0-0-0-0----|
A|0-0-0-0----------0---0-0-0-0----------0---0-0-0-0--3*|
D|0-0-0-0----------0---0-0-0-0----------0---0-0-0-0----|
  p p p p          p   p p p p          p   p p p p

Guitar 2 

Unknown

Breakdown Pt. 2 x4

Guitar 1
E|------------------------|
B|------------------------|
G|------------------------|
D|0-0-005-5-552-2-220-0-00|
A|0-0-005-5-552-2-220-0-00|
D|0-0-005-5-552-2-220-0-00|
  p p ppp p ppp p ppp p pp

Guitar 2

Unknown

Chrorus x 4

Outro

E|---------------------|
B|-3~---3~---3~---3~---|
G|-2~---2~---2~---2~---| Then strum for x amount of times
D|-0~---0~---0~---0~---|
A|-0~---0~---0~---0~---|
D|-0~---0~---0~---0~---|

p palm mute
* pinch harmonic
~ let ring out
/ slide to
Tap to rate this tab
 
# A B C D E F G H I J K L M N O P Q R S T U V W X Y Z