Song name
# A B C D E F G H I J K L M N O P Q R S T U V W X Y Z

Christoffer Brandsborg - Reflections tab

Title: "Reflections"
Composed By: Christoffer Brandsborg
Tuning: DADF#AD
Capo: 2th fret

Tips: Watch the video of this song while learning, because then It's easier to learn! 
Link to youtube video: http://www.youtube.com/watch?v=ymmOBFux-JE

Tabs: 


Intro: 

D|---------------------------------------------------------------|
A|-------0-------------0-------------0-------------0-------------|
F#|----3---3---3-----3---3---3-----3---3---3-----0---0---0-------|
D|---0-------0-----0-------0-----0-------0-----0-------0---------|
A|-5-------------4-------------2---------------------------------|
D|-------------------------------------------5-------------------|

D|-------------------------------------------------(5)-----------|
A|-------0-------------0-------------0------------(5)------------|
F#|----3---3---3-----3---3---3-----3---3---3-----(5)-------------|
D|---0-------0-----0-------0-----0-------0-----0-----------------|
A|-5-------------4-------------2---------------------------------|
D|-------------------------------------------5-------------------|

1st Vers: 

D|----------------2-------0--------------------------------------|
A|------------0---------0---0-----------------0------------------|
F#|-----3p0-3---------0-------0---------3p0-3-----0--------------|
D|----0---------0---------------------0---------0-------0h2p0----|
A|--5---5---5-------2-----------2-0-------------------0----------|
D|----------------------------------5---5---5-------0------------|

D|----------------2-----4-2---0----------------------------------|
A|------------0---------------------------------0----------------|
F#|-----3p0-3---------0-----0---0---------3p0-3-----0------------|
D|----0---------0-----------------------0---------0-------0h2p0--|
A|--5---5---5-------2-------------2-0-------------------0--------|
D|------------------------------------5---5---5-------0----------|

Chorus: 

D|----------------2s4-------4---------4-5---4-2p0---7-------7----|
A|------------0-----------0---0---------------------------0---0--|
F#|-----3p0-3-----------0-------0---0-----0-------0-----0-------0|
D|----0---------0------------------------------------------------|
A|--5---5---5----------------------------------------------------|
D|--------------------0-----------0-------------------5----------|

D|------------(5)-------------(12)----(7)-----------4s5---7------|
A|-------(7)---------(5)----------0------0--------0--------------|
F#|----------------0-(5)------------0------0----0-------0--------|
D|---(9)-----0---0-------0---------------------------------------|
A|--(9)----------------------------------------------------------|
D|-------------5-----------5~--0-------------0-------------------|

D|--7-----7-----------7-----(12)----(7)----------4s5---7---------|
A|------0---0-------0---0-------0------0-------0-----------------|
F#|---0-------0---0-------0-------0------0---0-------0-----------|
D|---------------------------------------------------------------|
A|---------------------------------------------------------------|
D|--5-----------5------------0-------------0---------------------|

D|--7-----7---------------(5)------------------------------------|
A|------0---0--------(7)----------(5)----------------------------|
F#|---0-------0-----------------0-(5)----------------------------|
D|---------------(9)-----0----0-------0--------------------------|
A|--------------(9)----------------------------------------------|
D|--5----------------------5------------5~-----------------------|

2nd Vers:

D|----------------2-------0--------------------------------------|
A|------------0---------0---0-----------------0------------------|
F#|-----3p0-3---------0-------0---------3p0-3-----0--------------|
D|----0---------0---------------------0---------0-------0h2p0----|
A|--5---5---5-------2-----------2-0-------------------0----------|
D|----------------------------------5---5---5-------0------------|

D|----------------2-----4-2---0----------------------------------|
A|------------0---------------------------------0----------------|
F#|-----3p0-3---------0-----0---0---------3p0-3-----0------------|
D|----0---------0-----------------------0---------0-------0h2p0--|
A|--5---5---5-------2-------------2-0-------------------0--------|
D|------------------------------------5---5---5-------0----------|

D|---------------------------------------------------------------|
A|------------0---4-------0---------------0----------------------|
F#|-----3p0-3-----------0-----0---5-----5-----0---0--------------|
D|----0---------0-----0-----0---0-----0-----0---0-------2s4-2p0--|
A|--5---5---5-----------------------------------------0----------|
D|------------------4---------------5---------------0------------|

D|---------------------------------------------------------------|
A|------------0---7---------0-----------0---5---5s7--------------|
F#|-----3p0-3-----------0-8-----5-----5-----------------7--------|
D|----0---------0-----0-------0-----0-----0---0-------0----------|
A|--5---5---5----------------------------------------------------|
D|------------------9-------------5-----------------7------------|

Chorus:

D|--------0-2s4-------4---------5-4---2p0---7-------7------------|
A|--0-0-0-----------0---0-------------------------0---0----------|
F#|---------------0-------0---0-----0-----0-----0-------0--------|
D|---------------------------------------------------------------|
A|---------------------------------------------------------------|
D|--------------0-----------0-----------------5------------------|

D|------------(5)-------------(12)----(7)-----------4s5---7------|
A|-------(7)---------(5)----------0------0--------0--------------|
F#|----------------0-(5)------------0------0----0-------0--------|
D|---(9)-----0---0-------0---------------------------------------|
A|--(9)----------------------------------------------------------|
D|-------------5-----------5~--0-------------0-------------------|

D|--7-----7-----------7-----(12)----(7)----------4s5---7---------|
A|------0---0-------0---0-------0------0-------0-----------------|
F#|---0-------0---0-------0-------0------0---0-------0-----------|
D|---------------------------------------------------------------|
A|---------------------------------------------------------------|
D|--5-----------5------------0-------------0---------------------|

D|--7-----7---------------(5)------------------------------------|
A|------0---0--------(7)----------(5)----------------------------|
F#|---0-------0-----------------0-(5)----------------------------|
D|---------------(9)-----0----0-------0--------------------------|
A|--------------(9)----------------------------------------------|
D|--5----------------------5------------5~-----------------------|

Outro: 

D|--12-----11---------12-11---9s7---9-------7---4-----------(5)--|
A|-----0------0---------------------------5---------7-5-4--(5)---|
F#|------0------0---0-------0-----0-----5-----5---0-------(5)----|
D|------------------------------------5--------------------------|
A|--------------------------------------------------0------------|
D|--9-------------9---------------------------------------0------|

What the letters mean: 

(x) = hit on the guitar body 
(number) = harmonic pick/strum 
~ = vibrato/let it ring long
h = hammer on 
p = pull of
s = slide 

Thank you for learning my composition! 

Leave a comment, and rate the guitar tab! 

PS. If someone learns the song, and upload a cover on youtube, you have
to let me know it! And you have to write on the upload that the song
is compoed by me: Christoffer Brandsborg! :-) 

SUBSCRIBE! 

Tap to rate this tab
 
# A B C D E F G H I J K L M N O P Q R S T U V W X Y Z