Song name
# A B C D E F G H I J K L M N O P Q R S T U V W X Y Z

Clawfinger - Dont Get Me Wrong tab

Artist:Clawfinger
Song:Don't Get Me Wrong
Tabber: Satan Man
Tabbers Email: death_metal6@hotmail.co.uk
Tuning: Drop D (D A D G B E)

Intro/Verse 
|---------------------------------------|
|---------------------------------------|
|---------------------------------------|
|---------------------------------------|
|-0----------------0---0---0---0---0----|
|-0-0-0-0-0-0-0-0--00--00--00--00--00-0-|

Chorus
|------------------------------|
|------------------------------|
|------------------------------|
|-0--3----7--6----0--3----7--6-|
|-0--3----7--6----0--3----7--6-|
|-0--3----7--6----0--3----7--6-|

Fill               
|-8-8-8-8-8-8-8-8-|-8-8-8-8-8-8-8-8-8-8-8-8-8-8-8-8-|
|-7-8-8-8-8-8-8-8-|-7-8-8-8-7-8-8-8-7-8-8-8-7-8-8-8-|
|-----------------|---------------------------------|
|-----------------|---------------------------------|
|-----------------|---------------------------------|
|-----------------|---------------------------------|
               
|-8-8-8-8-8-8-8-8-|-----------------|
|-7-8-8-8-8-8-8-8-|-----------------|
|-----------------|-----------------|
|-----------------|-----------------|
|-----------------|-----------------|
|-----------------|-0-0-0-0-0-0-0-0-|

Fill 2                            
|-5-6-6-6-6-6-6-6-|-5-6-6-6-5-6-6-6-5-6-6-6-5-6-6-6-|
|-5-5-5-5-5-5-5-5-|-5-5-5-5-5-5-5-5-5-5-5-5-5-5-5-5-|
|-----------------|---------------------------------|
|-----------------|---------------------------------|
|-----------------|---------------------------------|
|-----------------|---------------------------------|

|-------|
|-------|
|-------|
|-0-0-0-|
|-0-0-0-|
|-0-0-0-|
Tap to rate this tab
 
# A B C D E F G H I J K L M N O P Q R S T U V W X Y Z