Song name
# A B C D E F G H I J K L M N O P Q R S T U V W X Y Z

Clawfinger - I Need You tab

Hi!

Dies is der Tab zu dem Intro-Spiel von "I Need You"!
Viel Spaß!


                             I NEED YOU

Drop-D-Tuning:

D,A,D,G,H,E

E----------------------------|
H----------------------------|
G------0---------------------|4x
D----4--------0--------------|
A--2--------0-------2--------|
D---------3-------2----------|


E----------------------------|
H----------------------------|
G------0---------------------|4x
D----4--------0--------------|
A--2--------0-------2--------|
D---------3-------2----------|


Über die letzten vier Male wird folgendes von einer zweiten Gitarre gespielt:


E------------------------------------|
H------------------------------------|
G------------------------------------|
D---7h9--9-9---7h9--9-9---7h9--------|
A------------------------------------|
D------------------------------------|

Den Rhythmus müsst ihr dann halt raushören!
Is aba nicht schwer!
VIEL SPAß!
Tap to rate this tab
 
# A B C D E F G H I J K L M N O P Q R S T U V W X Y Z