Song name
# A B C D E F G H I J K L M N O P Q R S T U V W X Y Z

Cog - No Other Way tab

Song: No Other Way
Band: Cog
Album: Sharing Space
Tabbed by: Chris-W-11
Email: Chris-W-11@hotmail.com
Tuning: Standard (possibly drop D)

This is a great song by Cog I can't believe there was no tabs for it. This is my first tab but my my guitar teacher worked most of it out.

Play the main chord and use your pinky to alter it.
e---3---------3---------3---------3---------0---------------|l
b---5---------6---------5---------3---------1------3--------| l
g---5---------5---------5---------5---------2---------------|l
d---5---------5---------5---------5---------2---------------|l    x2 without vocals
a---3---------3---------3---------3---------0---------------|l   x4 with vocals
E ----------------------------------------------------------|l

It then changes to this
e---3---------3---------3---------3---------1------1------1------1-------------|l
b---3---------5---------6---------5---------1------3------1------3-------------|l
g---4---------4---------4---------4---------2------2------2------2-------------|l
d---5---------5---------5---------5---------3------3------3------3-------------|l
a------------------------------------------------------------------------------|l
E -----------------------------------------------------------------------------|l

This is as much as I know but I may work out more later.

Any comments email me.
Tap to rate this tab
# A B C D E F G H I J K L M N O P Q R S T U V W X Y Z