Song name
# A B C D E F G H I J K L M N O P Q R S T U V W X Y Z

Cog - Resonate tab

Help us improve GuitareTab! Take a short survey!
---------------------------------------------------------
	              Resonate - COG
---------------------------------------------------------
Tabbed by: Kristyn Lee
Email: spot_the_village_loony_836@hotmail.com

Tuning: Drop C 

These two parts are played over and over.

D|------2~------2~------------------|
A|------x-------x-------7~------5~--|
F|------x-------x-------x-------x---|x2
C|--44444---44444---77777---77777---|
G|--22222---22222---55555---55555---|
C|----------------------------------|

D|----------------------------------|
A|----------------7777-----5555-----|
F|----------------6666-----4444-----|x2
C|--2--4--4--4--0~-------0~---------|
G|--2--2--2--2--0~-------0~---------|
C|--2--2--2--2--0~-------0~---------|

at the moment i don't have a guitar with me to tab the solo.

| /  slide up
| \  slide down
| h  hammer-on
| ~  vibrato
| p  pull-off
| +  harmonic
| x  Mute note
=========================================================
Related for Resonate tab