Song name
# A B C D E F G H I J K L M N O P Q R S T U V W X Y Z

Crashdiet - Falling Rain tab

Help us improve GuitareTab! Take a short survey!
Band: Crashdïet
Song: Falling Rain


(intro)
----3-2-0-----3-2-0----------------|
-0-0-0-0-0-1-1-0-0-0-0-0-----------|
-----------------------------------|
-----------------------------------|
-----------------------------------|
-----------------------------------|(X5)

(guitar)
|----------------------------------|
|----------------------------------|
|--------8-8--6-6------------------|
|--2-2---8-8--6-6------------------|
|--2-2---6-6--3-3------------------|
|--0-0-----------------------------|(X2)

(guitar)
----------------------------------------------------|
----------------------------------------------------|
----------------------8-8-6-6-6-6-6-6-6-6-6-6-6-6---|
---2-2-2-2-2-2-2-2-2--8-8-6-6-6-6-6-6-6-6-6-6-6-6---|
---2-2-2-2-2-2-2-2-2--6-6-3-3-3-3-3-3-3-3-3-3-3-3---|
---0-0-0-0-0-0-0-0-0--------------------------------|(X2)

She`s an angel/ keep going at the verses.
-----------------------------------------------------|
-----------------------------------------------------|
----------------------8-8-6-6-6-6-6-6-6-6-6-6-6-6----|
---2-2-2-2-2-2-2-2-2--8-8-6-6-6-6-6-6-6-6-6-6-6-6----|
---2-2-2-2-2-2-2-2-2--6-6-3-3-3-3-3-3-3-3-3-3-3-3----|
---0-0-0-0-0-0-0-0-0---------------------------------|

that`s all thx for me.
Related for Falling Rain tab