Song name
# A B C D E F G H I J K L M N O P Q R S T U V W X Y Z

Crashdiet - Tomorrow tab

Crashdiet - Tomorrow (Demo Version 2)

D Tuning/ 1 Step Down/ DGCFAD

Intro:

E----------------------------------------|
B----------------------------------------|
G------9-----7-----7-9-------7-------9---|
D------9-----7-----7-9-------7-------9---|
A------7-----5-----5-7-------5-------7---|
E--0-0---0-0---0-0-----0-0-0---0-0-0-----|

E---------------------------------------|
B-------------------------5-----5-------|
G------9-----7-----7-9------5-----5-----|
D------9-----7-----7-9--5-----5-----5---|
A------7-----5-----5-7------------------|
E--0-0---0-0---0-0----------------------|

Verse:
(either you do some picking on the chords or just play them)
the chords isnt really named this but i dont know what they are called 

Chords:
  Em        C
E--7--|  E--3--|
B--7--|  B--3--|
G--9--|  G--5--|
D--9--|  D--5--|
A--7--|  A--3--|
E-----|  E-----|

Em                       C
  I dont wanna change my ways to fit in to your pattern
Em                             C
  Becoming a man I don't wanna be...

 So I could see it coming...
E--------------------------------------|
B--------------------------------------|
G--------9--------7-------5-------7----|
D--------9--------7-------5-------7----|
A--------7--------5-------3-------5----|
E--0-0-0----0-0-0---0-0-0---0-0-0------|  x3

Your strength made it to conclusion...
E-------------------------------|
B-------------------------------|
G--------9--------7-----5-------|
D--------9--------7-----5-------|
A--------7--------5-----3-------|
E--0-0-0----0-0-0---------------|

Chorus:

(Dist Guitar)
      There is no tomorrow
E---------------------------------|
B---------------------------------|
G---5-------------7------9--------|
D---5-------------7------9--------|
A---3-------------5------7--------|
E---------------------------------|

   In the world that I live
E-------------------------------------|
B-------------------------------------|
G---5---------------7-----------------|
D---5---------------7---------9-7-9---|
A---3---------------5---------9-7-9---|
E-----------------------------7-5-7---|

Post-Chorus:

E----------------------------------------|
B----------------------------------------|
G------9-----7-----7-9-------7-------9---|
D------9-----7-----7-9-------7-------9---|
A------7-----5-----5-7-------5-------7---|
E--0-0---0-0---0-0-----0-0-0---0-0-0-----|

E---------------------------------------|
B-------------------------5-----5-------|
G------9-----7-----7-9------5-----5-----|
D------9-----7-----7-9--5-----5-----5---|
A------7-----5-----5-7------------------|
E--0-0---0-0---0-0----------------------|

Bridge:
(There is a clean guitar picking on the chords at the same time)

 You feed upon my affection and the space of my heart
E---3-----------5----------3------------5--------|
B---3-----------5----------3------------5--------|
G---5-----------7----------5------------7--------|
D---5-----------7----------5------------7--------|
A---3-----------5----------3------------5--------|
E------------------------------------------------|

Now I'm never on the burning, somehow I made it through the learning
E-----------------------------------------------------------|
B-----------------------------------------------------------|
G--9-------------------------7------------------------------|
D--9-------------------------7------------------------------|
A--7-------------------------5------------------------------|
E--0--------------------------------------------------------|

      Let there be another day
E--------------------------------------|
B--------------------------------------|
G---5-----------------------7-5-7------|
D---5-----------------------7-5-7------|
A---3-----------------------5-3-5------|
E--------------------------------------|

Solo Rythm Guitar:

E------------------------------------------------------|
B------------------------------------------------------|
G-------9------7------9---------------------------9----|
D-------9------7------9---------7----5--7---------9----|
A-------7------5------7---------7----5--7---------7----|
E---0-0----0-0----0-0-----------5----3--5---0-0-0------| x2
Tap to rate this tab
 
# A B C D E F G H I J K L M N O P Q R S T U V W X Y Z