Song name
# A B C D E F G H I J K L M N O P Q R S T U V W X Y Z

Crashdiet - Circus tab

Circus - Crashdiet (The Savage Playground)

Tuning: E Standard


[Intro]

e|-------------------------------------------------------------|
B|-------------------------------------------------------------|
G|-----------------------7-----7---------------------7---7-9---|
D|-------9-----9---------5-----4---------9-----9-----5\4-5-7---|
A|-------7-----7-------------------------7-----7---------------|
E|---0-0---0-0---0-0-0-0---0-0---0-0-0-0---0-0---0-0-----------|


[Verse]

e|---------------------------------------------------------------|
B|---------------------------------------------------------------|
G|---------------------------------------------------------------|
D|-------9-----9---------9-----9---------9-----9---9-----9-------|
A|-------7-----7---------7-----7---------7-----7---7-----7-------|
E|---0-0---0-0---0-0-0-0---0-0---0-0-0-0---0-0---0---0-0---0-0---|


[Pre-Chorus]

e|--------------------------------------------------|
B|--------------------------------------------------|
G|---5--------9--------7----------------------------|
D|---5--------9--------7--------9-9-9-9-9-9-9-9-9---|
A|---3--------7--------5--------9-9-9-9-9-9-9-9-9---|
E|------------------------------7-7-7-7-7-7-7-7-7---|


[Chorus]

e|----------------------------------------------------------------|
B|----------------------------------------------------------------|
G|---9-9-9-9-9-9-9-9--7-7-7-7-7-7-7-7--5-5-5-5-5-5-5-5-------4----|
D|---9-9-9-9-9-9-9-9--7-7-7-7-7-7-7-7--5-5-5-5-5-5-5-5--5----4----|
A|---7-7-7-7-7-7-7-7--5-5-5-5-5-5-5-5--3-3-3-3-3-3-3-3--5----2----|
E|------------------------------------------------------3---------|


[Pre-Guitar solo]

e|----------------------------------------------------|
B|----------------------------------------------------|
G|--------------7---7-9-------------------------------|
D|---2----------5\4-5-7--2----------------------------|
A|---2-------------------2--------------0-----0-------|
E|---0-------------------0----------0-3---0-3---3-0---|

e|-------------------------------------------------------------|
B|-------------------------------------------------------------|
G|---------------------------------------------------7---7-9---|
D|-------2-----2---------5-----4---------9-----9-----5\4-5-7---|
A|-------2-----2---------5-----4---------7-----7---------------|
E|---0-0-0-0-0-0-0-0-0-0---0-0---0-0-0-0---0-0---0-0-----------|


[Second guitar during the solo]

e|---------------------------------------|
B|---------------------------------------|
G|---5--------9--------7-----------------|
D|---5--------9--------7--------9--------|
A|---3--------7--------5--------9--------|
E|------------------------------7--------| x2


[Bridge]

e|----------------------------------------------------------------------------------------|
B|---------0---------0----------0---------0----------0---------0----------0---------0-----|
G|-------0---0-----0---0------0---0-----0---0------0---0-----0---0------0---0-----0---0---|
D|-----5---------5----------9---------9----------7---------7----------4---------4---------|
A|---3---------3----------7---------7----------5---------5----------2---------2-----------|
E|----------------------------------------------------------------------------------------|


[Outro Chorus]

e|------------------------------------------------------------------------------|
B|------------------------------------------------------------------------------|
G|---9--9--9--9--9--9--9--11-11-11-11-11-11-11-12-12-12-12-12-12-12-12------4---|
D|---x--x--x--x--x--x--x--x--x--x--x--x--x--x--x--x--x--x--x--x--x--x---5---4---|
A|---7--7--7--7--7--7--7--9--9--9--9--9--9--9--10-10-10-10-10-10-10-10--5---2---|
E|----------------------------------------------------------------------3-------|



| /   slide up
| \   slide down
| x   Mute note
Tap to rate this tab
# A B C D E F G H I J K L M N O P Q R S T U V W X Y Z