Song name
# A B C D E F G H I J K L M N O P Q R S T U V W X Y Z

Cream - Sunshine Of Your Love tab

Intro:           
                     E--------------------------------
                     B----------7-7-5-7---------6(bend)
                     G----------7-7-5-7-------7---7---
                     D----------7-7-5-7--7-6-5--------
                     A--------------------------------
                     E-------------------------------- 
                     
                     
                     E--------------------------------
                     B----------7-7-5-7---------6(bend)
                     G----------7-7-5-7-------7---7---
                     D----------7-7-5-7--7-6-5--------
                     A--------------------------------
                     E-------------------------------- 
Chorus:              
                     E-----------------------------------------------------------
                     B----------------------------------------------------------
                     G-------------------3--3-3---------------------3--3-3---------
                     D--5--5-5---3--3-3--3--3-3---5--5-5---3--3-3---3--3-3---------
                     A--5--5-5---3--3-3--1--1-1---5--5-5---3--3-3---1--1-1---------
                     E--3--3-3---1--1-1-----------3--3-3---1--1-1------------------
Tap to rate this tab
# A B C D E F G H I J K L M N O P Q R S T U V W X Y Z