Song name
# A B C D E F G H I J K L M N O P Q R S T U V W X Y Z

Cream - Sunshine Of Your Love tab

Artist: Cream
Song Title: Sunshine of Your Love
Tabbed by: 9natedawg 

Every tab I've seen for this song stinks (no offense to anyone) so I've
 tabbed for you people a nice, accurate tab. Please, Enjoy. :) 

Tuning: Standard (EADGBe) 

NOTE: ORDER IS AT THE END OF TAB!!! 

Intro A (clean+reverb):              Light Palm Mute
e|-------------------------------------------------------------------------|
B|-------------------------------------------------------------------------|
G|-------------------------------------------------------------------------|
D|---12-12-10-12-----------------------------------------------------------|
A|----------------12--11--10-----------------------------------------------|
E|----------------------------10-13~--10-----------------------------------|
    PM.  .  .  .  .  .  .  .  .  .  .  . 

Verse A, Intro B (light distortion): 
e|-------------------------------------------------------------------------|
B|-------------------------------------------------------------------------|
G|-------------------------------10~---------------------------------------|
D|----------------------------(0)-----12-----------------------------------|
A|---12-12-10-12--12--11--10-----------------------------------------------|
E|---10-10-8--10-----------------------------------------------------------|
 

Verse B (light distortion):
e|-------------------------------------------------------------------------|
B|-------------------------------------------------------------------------|
G|--(7-7-5-7)--7--6--5-----------------------------------------------------|
D|--------------------3s5~-8--5~-------------------------------------------|
A|---5-5-3-5---------------------------------------------------------------|
E|---3-3-1-3---------------------------------------------------------------|
 

Chorus A (light distortion):
e|-------------------------------------------------------------------------|
B|-------------------------------------------------------------------------|
G|-------------------------------------------------------------------------|
D|---7--7-7------5----5----------------------------------------------------|
A|---7--7-7------3----5----------------------------------------------------|
E|---5--5-5-----------3----------------------------------------------------|
 

Chorus B (light distortion):
e|-------------------------------------------------------------------------|
B|-------------------------------------------------------------------------|
G|---------------5---------------------------------------------------------|
D|---7--7-7------5----5----------------------------------------------------|
A|---7--7-7------3----5----------------------------------------------------|
E|---5--5-5------3----3----------------------------------------------------|
 

Bridge 1 (light distortion):
e|-------------------------------------------------------------------------|
B|-------------------------------------------------------------------------|
G|-------------------------------------------------------------------------|
D|---7--7-7--7-7--7-7--7-7--7-7--7-7--7--7---------------------------------|
A|---7--7-7--7-7--7-7--7-7--7-7--7-7--7--7---------------------------------|
E|---5--5-5--5-5--5-5--5-5--5-5--5-5--5--5---------------------------------|
 
NOTE: Bridge 2/Outro is just the A power chord (see above) played 
repeatedly in a fashion that I really don't think is necessary tabbed out(I
think you guys are smart enough).

Solo (light distortion):
e|-------------------------------------------------------------------------|
B|------------------12-----------------------------------------------------|
G|---12b14----12-14----12b14-(14)--12--12b14-------------------------------|
D|-------------------------------------------------------------------------|
A|-------------------------------------------------------------------------|
E|-------------------------------------------------------------------------|
 

e|-------------------------------------------------------------------------|
B|---------------9b---------------9b10r9-9b10r9-9b10r9---------------------|
G|---9b--9p7h9-7-9b---7~------7h9-9b10r9-9b10r9-9b10r9-7h9-7h9-7~----------|
D|------------------------7h9----------------------------------------------|
A|-------------------------------------------------------------------------|
E|-------------------------------------------------------------------------|


e|-------------------------------------------------------------------------|
B|-------------------------------------------------------------------------|
G|---10b-(12)-10b--10b--10b--10b--9p7---7-9b11-----------------------------|
D|------------------------------------9------------------------------------|
A|-------------------------------------------------------------------------|
E|-------------------------------------------------------------------------|


e|-------------------------------------------------------------------------|
B|-------------------------------------------------------------------------|
G|------7h9-9b11--------7h9-9b10r-9b11r-9b10r--7h9-7h9-7~------------------|
D|---7h9-------------7h9---------------------------------------------------|
A|-------------------------------------------------------------------------|
E|-------------------------------------------------------------------------|

NOTE: The rest of the solo is a bit of a mystery to me at the moment, but
 I'll do the best I can to put it up later. Meanwhile, a good tab to look 
at would be budyholly82586's tab of the Sunshine of Your Love Solo.

Order:
------------
Intro A x2             __
Intro B/Verse A x6       \
Verse B x2                \
Verse A x2                 \ All of this x2 
Chorus A x2                / 
Chorus B x1               /
Bridge 1 x1            __/
Guitar Solo x1
Verse x1 (A x6, B x2, A x2)
Chours x2 (A x2, B x1)
Bridge 2/Outro x1

Legend:
------------
h-hammer-on
p-pull-off
b-bend
r-release
s-slide
x-muted or "dead" note
~-vibrato
*-harmonic
\\-pick slide down
//-pick slide up
PM-palm mute
PH-pick harmonic
AH-arificial harmonic
Tap to rate this tab
 
# A B C D E F G H I J K L M N O P Q R S T U V W X Y Z