Song name
# A B C D E F G H I J K L M N O P Q R S T U V W X Y Z

Creed - Time chords

Highlighted       Show chord diagrams
TIME (Full Circle)- Creed
Cover by sinForge xJp
Standard Tuning

This is my own flexible way of playing the song
without any crazzzy Mark Tremonti tunings. 

Also note that the important thing to get out of
my tab is the chord positions.  Learning/imitating
the picking and strumming is up to you =)


INTRO/VERSE             (hold..)
e|---0---------5---------3-------------3---2------|-
B|---0---------3*--------1-------------1---3---0--|-
G|---4---------0---------0-------------0---2---0--|-
D|---5---------4---------2-------------2---0---0--|-
A|---7---------5---------3-------------3-------x--|-  x2 (intro)
E|---0-----------------------------------------3--|-  x4 (verse)
     Em..      Dadd4..   C..           C   D   G..    

CHORUS
e|------------0----0-----0---------0---------|-
B|--0---------0----0-----3---------0---------|-
G|--0---------x----0-----2---------0---------|-
D|--0---------7----9-----0---------x---------|-
A|--x---------7----7---------------3---------|-
E|--3---------0----0-------------------------|-   x2
    G..     Eadd4  Em   Dadd9..    Cmaj7..


BRIDGE
e|----------------------0---------5---------3---------0--|-
B|--0---------0---------0---------3---------1---------0--|-
G|--0---------0---------4---------0---------0---------4--|-
D|--2---------0---------5---------4---------2---------5--|-
A|--x---------x---------7---------5---------3---------7--|-
E|--3---------2---------0-----------------------------0--|-   x4
    G6..      G/F#..    Em..      Dadd4..   C..       Em..  
                                                             
*If imitating the picking, strum the chord, then let
go of the 3 for the B in the picking pattern

 
Tap to rate this tab
# A B C D E F G H I J K L M N O P Q R S T U V W X Y Z