Song name
# A B C D E F G H I J K L M N O P Q R S T U V W X Y Z

Creed - Time tab

Title: Time
Band: CREED
Album: Full Circle
Tabbed by: Rodrigo A.P.  
e-mail: enigma_ch@hotmail.com
Tuning: Standard [e B G D A E] 


If you have any questions or corrections for the tab email me. Enjoy!



/   = silde
~   = vibrate
<>  = Natural hamonic
<*> = Artificial harmonic



[Intro/verses] 

Clean w/fingers
Let ring throughout
e||---0--------------------|--5--------------------|--0----3----3----------|
B||-------------0----------|------------0----------|-----------------------|
G||o-------0---------0-----|-------0---------0-----|-----------------0-----|
D||o--2--------------------|-----------------------|-----------------------|
A||------------------------|--5--5---5--5--5---5---|--3--3---3--3--3---3---|
E||---0--0---0--0--0---0---|-----------------------|-----------------------|
 
    

|--3----2---------------|--0--------------------|--5---------2----------|
|------------3----------|------------0----------|-----------------------|
|-----------------0-----|-------0---------0-----|-------0---------0-----|
|-----------------------|--2--------------------|-----------------------|
|--3--3---3--3--3---3---|-----------------------|--5--5---5--5--5---5---|
|-----------------------|--0--0---0--0--0---0-L-|-----------------------|

  
|------------2----2-----|--0---------2----0------||
|--3--------------------|------------------------||
|-------0---------------|-------0---------------o||
|-----------------------|-----------------------o||
|--3--3---3--3--3---3---|--3--3---3--3--3---3----||
|-----------------------|------------------------||




[Chorus]

_
 \    G    Em   Dsus2   C
) ||--3--|--0--|--0--|--0--|
  ||--3--|--0--|--3--|--1--|
  ||--0--|--0--|--2--|--0--|
  ||--0--|--2--|--0--|--2--|
) ||--2--|--2--|-----|--3--|
  ||--3--|--0--|-----|-----|
_/

      G                           Em
This time I have nothing left to lose 
                               Dsus
I'm stuck the second hand wont move 
                                 C
It's about time that I speak my mind 
                               G
It's about time, about time I find 
                     Em                            Dsus2
Pieces of me I have lost, without any choice I move on 
                            C
Hey time your no friend of mine, hey time your no friend of mine. 




[Verse 2]




[Chorus 2]

w/dist.
_
 \    G5   Em5    D5    C5
) ||-----|-----|-----|-----|
  ||-----|--5--|-----|-----|
  ||--4--|--4--|--7--|--5--|
  ||--5--|--2--|--7--|--5--|
) ||--5--|--2--|--5--|--3--|
  ||--3--|--0--|--5--|--3--|
_/




[Bridge 1] 

Clean w/fingers
Let ring throughout
Gtr 1
||---0-------------------|----------------------|-------------------------|
||-------------0---------|------------0---------|-------------------------|
||o-------0---------0----|--2----0---------0----|--------0----<12>---0----|
||o--2-------------------|----------------------|-------------------------|
||-----------------------|----------------------|--<7>--------------------|
||---3--3---3--3--3---3--|--2--2---2--2--2---2--|---0--0---0---0---0---0--|


|------------------------------|--5-------------------|
|---<12>---------<7>-----------|------------0---------|
|----------0------------<7>----|-------0---------0----|
|------------------------------|----------------------|
|------------------------------|--5--5---5--5--5---5--|
|-----0--0---0----0--0------0--|----------------------|

 
|--0---------------------|--0----2----2h3---2--|
|-------------0----------|---------------------|
|-------0----------0-----|---------------------|
|------------------------|---------------------|
|--3--3---3--3--3--------|---------------------|
|--------------------3/2-|--0--0---0--0---0-0--|

    
|---<7>----------------------|
|---------<7>----------------|
|---------------<7>----------|
|---------------------<7>----|
|----------------------------|
|----0--0-----0--0--0-----0--|


|--0-------------------|----------------------|-------------------------|
|------------0---------|------------0---------|-------------------------|
|-------0---------0----|--2----0---------0----|--------0----<12>---0----|
|--2-------------------|----------------------|-------------------------|
|----------------------|----------------------|--<7>--------------------|
|--3--3---3--3--3---3--|--2--2---2--2--2---2--|---0--0---0---0---0---0--|


Gtr1                   ~~
|---------------------------|--5-------------------|
|---<12>---------<7>---8----|------------0---------|
|----------0----------------|-------0---------0----|
|---------------------------|----------------------|
|---------------------------|--5--5---5--5--5---5--|
|-----0--0---0----0--0---0--|----------------------|
|
|Gtr 2
|---------------------<3*>---|----------------------|
|----------------------AH----|----------------------|
|----------------------------|----------------------|
|----------------------------|----------------------|
|----------------------------|----------------------|
|----------------------------|----------------------|

                         
|--0---------------------|--0----2----2h3---2--|
|-------------0----------|---------------------|
|-------0----------0-----|---------------------|
|------------------------|---------------------|
|--3--3---3--3--3--------|---------------------|
|--------------------3/2-|--0--0---0--0---0-0--|

______________
|1  
|---<7>-----------------------||
|---------<7>-----------------||
|---------------<7>----------o||
|---------------------<7>----o||
|-----------------------------||
|----0--0-----0--0--0-----0---||


 _____________
|2
|--0----2----2h3---2--|
|---------------------|
|---------------------|
|---------------------|
|---------------------|
|--0--0---0--0---0-0--|




[Bridge 2]
w/dist.


|-------------------------|------------------------|
|-------------------------|------------------------|
|o--4--4-4-4-4-4--4-4-4-4-|------------------------|
|o--5--5-5-5-5-5--5-5-5-5-|--4--4-4-4-4-4--4-4-4-4-|
|---5--5-5-5-5-5--5-5-5-5-|--5--5-5-5-5-5--5-5-5-5-|
|---3--3-3-3-3-3--3-3-3-3-|--2--2-2-2-2-2--2-2-2-2-|


|---------------------------------|--------------------------------------|
|---------------------------------|--------------------------------------|
|--9-9-9-9-9-9-11-11-11-11-11-11--|--12-12-12-12-12-12-11-11-11-11-11-11-|
|--x-x-x-x-x-x--x--x--x--x--x--x--|---x--x--x--x--x--x--x--x--x--x--x--x-|
|--7-7-7-7-7-7--9--9--9--9--9--9--|--10-10-10-10-10-10--9--9--9--9--9--9-|
|---------------------------------|--------------------------------------|

 
|-----------------------|------------------------|-------------------------|
|-----------------------|------------------------|-------------------------|
|-----------------------|------------------------|--------------4--4-4-4-4-|
|-7--7-7-7-7-7--7-7-7-6-|--5--5-5-5-5-5--5-5-5-5-|--2-2---------2--2-2-2-2-|
|-5--5-5-5-5-5--5-5-5-6-|--3--3-3-3-3-3--3-3-3-3-|--2-2---------2--2-2-2-2-|
|-3--5-5-5-5-5--5-5-5-4-|--3--3-3-3-3-3--3-3-3-3-|--0-0-0-2-3-2-0--0-0-0-0-|


|-------------------------------||
|-------------------------------||
|------------------------------o||
|-------------7/12-12-12-12-12-o||
|--7--7-7-7-7-------------------||
|--5--5-5-5-5-5/10-10-10-10-10--||




[Chours 3]
Play with dist. & then play the bridge 2 




[Outro]
Play two times the bridge 1 and in the last 2 bars ends with this:
                          ~~~~
|--0----2----2h3---2--|--/5~~~-----|
|---------------------|------------|
|---------------------|------------|
|---------------------|------------|
|---------------------|------------|
|--0--0---0--0---0-0--|---0--------|






Here's the video lessons:

Part I  - http://www.youtube.com/watch?v=b9sPwpygOMk
part II - http://www.youtube.com/watch?v=SMwyQZATPLY
Tap to rate this tab
 
# A B C D E F G H I J K L M N O P Q R S T U V W X Y Z