Guitaretab - guitar tabs
Song name
# A B C D E F G H I J K L M N O P Q R S T U V W X Y Z

Crossfade - Colors tab

Band Name: Crossfade
Song Name: Colors
Tuning: Drop C (C-G-C-F-A-D low to high)
Tabbed by sonicbluezx3@yahoo.com

Apparently nobody else on the internet could tell by listening to this song that it's not in
drop D....so here's my version of the tab.

Intro:
D|--------------------------------|
A|--<12>-------------------<7>----|
F|--------<12>--------------------|
C|--------------------<5>---------|
G|--------------<7>---------------|
C|--------------------------------|


Verse:  (4x)
D|-------------------------------|--------------------------------------------|
A|-------------------------------|--------------------------------------------|
F|--4-------------4--------------|--4-----4----------4------------------------|
C|----2-2---2-------2-------1--2-|----2--------------------------1--2---------|
G|--------3---2-------2----------|------3---2p3-2-------2----2----------------|
C|-2------------5-------5-4------|-2---------------5-------4---4--------------|

Then...
D|----------------------|
A|----------------------|
F|--4-------------4-----|
C|----2-2---2-------2---|
G|--------3---2-------2-|
C|-2------------5-------|


Chorus:
D|--------------------------------|
A|--------------------------------|
F|--------------------------------|
C|-2--2--2-5-5-5--0--0--0-7-7-7-5-|
G|-2--2--2-5-5-5--0--0--0-7-7-7-5-|
C|-2--2--2-5-5-5--0--0--0-7-7-7-5-|

D|--------------------------------|
A|--------------------------------|
F|--------------------------------|
C|-2--2--2-5-5-5--0--0--0--x-x-x--|
G|-2--2--2-5-5-5--0--0--0--x-x-x--|
C|-2--2--2-5-5-5--0--0--0--x-x-x--|

D|--------------------------------|
A|--------------------------------|
F|--------------------------------|
C|-2--2--2-5-5-5--0--0--0-7-7-7-5-|
G|-2--2--2-5-5-5--0--0--0-7-7-7-5-|
C|-2--2--2-5-5-5--0--0--0-7-7-7-5-|

D|--------------------------------|
A|--------------------------------|
F|--------------------------------|
C|-2--2--2-5-5-5--0--0--0-7--7--5-|
G|-2--2--2-5-5-5--0--0--0-7--7--5-|
C|-2--2--2-5-5-5--0--0--0-7--7--5-|


Verse 2: 3x
D|-------------------------------|--------------------------------------------|
A|-------------------------------|--------------------------------------------|
F|--4-------------4--------------|--4-----4----------4------------------------|
C|----2-2---2-------2-------1--2-|----2--------------------------1--2---------|
G|--------3---2-------2----------|------3---2p3-2-------2----2----------------|
C|-2------------5-------5-4------|-2---------------5-------4---4--------------|
[ Tab from: http://www.guitaretab.com/c/crossfade/270605.html ]
Then...
D|-------------------------------|---------------------------|
A|-------------------------------|---------------------------|
F|--4-------------4--------------|--4-----4----------4-------|
C|----2-2---2-------2-------1--2-|----2----------------------|
G|--------3---2-------2----------|------3---2p3-2-------2----|
C|-2------------5-------5-4------|-2---------------5-------4-|

Chorus
D|--------------------------------|
A|--------------------------------|
F|--------------------------------|
C|-2--2--2-5-5-5--0--0--0-7-7-7-5-|
G|-2--2--2-5-5-5--0--0--0-7-7-7-5-|
C|-2--2--2-5-5-5--0--0--0-7-7-7-5-|

D|------------------------------------|
A|------------------------------------|
F|------------------------------------|
C|-2--2--2---7-7--7---6--6--6-6-5-5---|
G|-2--2--2---5-5--5---4--4--4-4-3-3---|
C|-2--2--2----------------------------|

D|--------------------------------|
A|--------------------------------|
F|--------------------------------|
C|-2--2--2-5-5-5--0--0--0-7-7-7-5-|
G|-2--2--2-5-5-5--0--0--0-7-7-7-5-|
C|-2--2--2-5-5-5--0--0--0-7-7-7-5-|

D|------------------------------------|
A|------------------------------------|
F|------------------------------------|
C|-2--2--2---7-7--7---6--6--6-6-5-5---|
G|-2--2--2---5-5--5---4--4--4-4-3-3---|
C|-2--2--2----------------------------|

Interlude (4x)
D|-----------------------------------------------------|
A|-----------------------------------------------------|
F|--------------5-5--5-5-4-----------------5-5--5-4----|
C|-2-2--2-2--2--5-5--5-5-4----5-5--5-5-----5-5--5-4----|
G|-2-2--2-2--2--3-3--3-3-2 ---5-5--5-5-----3-3--3-2----|
C|-2-2--2-2--2----------------5-5--5-5-----------------|

Last time only:
D|------------|
A|------------|
F|------------|
C|-2--2----2--|
G|-2--2----2--|
C|-2--2----2--|


Outro Part 1 (3x)
 "showing out the best.....
D|--------------------------------|
A|--------------------------------|
F|--------------------------------|
C|-2--0~---------x-x-x--0---------|
G|-2--0~---------x-x-x--0---------|
C|-2--0~---------x-x-x--0---------|

...colors that you shine....
D|--------------------------------|
A|--------------------------------|
F|--------------------------------|
C|-2-----------x-x-x--2-----------|
G|-2-----------x-x-x--2-----------|
C|-2-----------x-x-x--2-----------|


Outro Part 2: (play once)
D|--------------------------------|
A|--------------------------------|
F|--------------------------------|
C|-2--0~---------x-x-x--0---------|
G|-2--0~---------x-x-x--0---------|
C|-2--0~---------x-x-x--0---------|

D|----------------------------|
A|----------------------------|
F|----------------------------|
C|-2--2---------x-x-2~--------|
G|-2--2---------x-x-2~--------|
C|-2--2---------x-x-2~--------|
Related for Colors tab
Colors chords by Crossfade