Song name
# A B C D E F G H I J K L M N O P Q R S T U V W X Y Z

Daniel Licht - Photo Albums tab

Artist: Daniel Licht
Song: Photo Albums/Photos

Tuning: C G D G B E

This is a much easier way to play than other tabs and is 100% accurate


e|---------------------------------------------------------------------------|
B|---------------------------------------------------------------------------|
G|---------------------------------------------------------------------------|
D|-------13-------------8------------8--------------------5-----------7------|
G|----12----12-------7-----7------5--------------------3-----3-----5---------|
C|-12-------------7------------5----------------0-2-3-----------5------------|

e|---------------------------------------------------------------------------|
B|---------------------------------------------------------------------------|
G|---------------------------------------------------------------------------|
D|-------13-12-12h13~~~----------13----------------8------------8-----7~~~---|
G|----12---------------------12------12---------7-----7------5-----5---------|
C|-12--------------------12------------------7------------5------------------|

e|---------------------------------------------------------------------------|
B|---------------------------------------------------------------------------|
G|---------------------------------------------------------------------------|
D|-------------5-----------7------------------------13-12-12h13~~~-----------|
G|----------3-----3-----5------------------------12--------------------------|
C|---0-2-3-----------5------------------------12-----------------------------|

e|---------------------------------------------------------------------------|
B|---------------------------------------------------------------------------|
G|---------------------------------------------------------------------------|
D|--------5-----------7-----------5-----------7-----------5-----------7------|
G|-----3-----3-----5-----5-----3-----3-----5-----5-----3-----3-----5-----5---|
C|--3-----------5-----------3-----------5-----------3-----------5------------|

e|---------------------------------------------------------------------------|
B|---------------------------------------------------------------------------|
G|---------------------------------------------------------------------------|
D|------9----9-------------------13--------------8-----------8-----7~~~------|
G|---10---10-----------------12------12-------7-----7-----5-----5------------|
C|-7---------------------12----------------7-----------5---------------------|

e|---------------------------------------------------------------------------|
B|---------------------------------------------------------------------------|
G|---------------------------------------------------------------------------|
D|-------------5-----------7-----------------------13-12-12h13~~~------------|
G|----------3-----3-----5-----5----------------12----------------------------|
C|---0-2-3-----------5---------------------12--------------------------------|
Tap to rate this tab
# A B C D E F G H I J K L M N O P Q R S T U V W X Y Z