Song name
# A B C D E F G H I J K L M N O P Q R S T U V W X Y Z

Daniel Licht - Photos tab

Photos de Daniel Licht

C'est la musique Photos de la série Dexter.
Une version facile, mais qui reste très jolie et agréable à jouer.
Bonne chance

D|--------3--2---------------------------------------------3--2---23-----|
A|-----0-----------3-2------2-----------0---------2-----0----------------|
F|-----------------------------------------------------------------------|
C|--2------------4-------2------------0--------2-----2-------------------|
G|-------------2-------0--------------------0----------------------------|
C|------------------------------0-2-3-----3------------------------------|

D|------3-2---------------------------------------------3--2---23--------|
A|----0---------3-2------2----------0-------2--------0-------------------|
F|-----------------------------------------------------------------------|
C|--2---------4-------2-----------0-------2---2---2----------------------|
G|----------2-------0-------------------0--------------------------------|
C|--------------------------0-2-3-----3----------------------------------|

D|-------------------------|
A|--------0-------2--------|
F|-------------------------|   X 3
C|-----0--------2----2-----|
G|------------0------------|
C|--3-------3--------------|

D|-------------------------|
A|--------4------4---------|
F|----------4---4----------|
C|-----4-------4-----------|
G|--4----------------------|
C|-------------------------|

D|--------3--2---------------------------------------------3--2---23-----|
A|-----0-----------3-2------2-----------0---------2-----0----------------|
F|-----------------------------------------------------------------------|
C|--2------------4-------2------------0--------2-----2-------------------|
G|-------------2-------0--------------------0----------------------------|
C|------------------------------0-2-3-----3------------------------------|
Tap to rate this tab
# A B C D E F G H I J K L M N O P Q R S T U V W X Y Z