Song name
# A B C D E F G H I J K L M N O P Q R S T U V W X Y Z

Darkbuster - Hell On Wheels tab

Darkbuster
22 Songs that You Will Never Wanna Hear Again
Hell on Wheels

Intro/Chorus:
----------------------------------------------------|
----------------------------------------------------|
----------------------------------7-7-7-7-6-6-6-6---|
---4-4-2-4---4-4-2-4---4-4-2-4----7-7-7-7-6-6-6-6---|
---4-4-2-4---4-4-2-4---4-4-2-4----5-5-5-5-4-4-4-4---|
---2-2-0-2---2-2-0-2---2-2-0-2----------------------|

Verse:
--------------------------------------------|
--------------------------------------------|
-----------7-7-6-6--------------------------|
---4-4-7-7-7-7-6-6--------------------------|
---4-4-7-7-5-5-4-4--------------------------|
---2-2-5-5----------------------------------|
Tap to rate this tab
 
# A B C D E F G H I J K L M N O P Q R S T U V W X Y Z