Song name
# A B C D E F G H I J K L M N O P Q R S T U V W X Y Z

Daughter - Still tab

Tuning: Standard
No Capo
(Sounds way better if your using electric but still works fine with acoustic)
-----------------------------------
Intro:
---
e|------------------------------------|
B|------------------------------------|
G|------------------------------------|X2
D|----5------5------5------7/9/7------|   
A|----7------5------3-----------------|   
E|------------------------------------|

Lyrics for first part of song:
---
I'll wrap up my bones
And leave them
Out of this home
Out on the road
Two feet standing on a principle
Two hands longing for each others warmth
Cold smoke seeping out of colder throats
Darkness falling, leaves nowhere to go

e|------------------------------------|
B|------------------------------------|
G|------------------------------------|X4 Then next time skip the 7/9/7 but go 
D|----5------5------5------7/9/7------|   back to it after you play it once 
A|----7------5------3-----------------|   you can hear when in the song. :)
E|------------------------------------|


Next part when you get to "It's spiraling down" only play this:
---
It's spiraling down
Biting words like a wolf howling
Hate is spitting out each others mouths
But we're still sleeping like we're lovers
e|------------------------------------|
B|------------------------------------|
G|------------------------------------|X2
D|----5------5------5-----------------|
A|----7------5------3-----------------|
E|------------------------------------|

Part 3: (Chorus)
---
Still with feet touching
Still with eyes meeting
Still our hands match
Still with hearts beating...
e|---------------------------------------------------------------------|
B|---------------------------------------------------------------------|
G|---------------------------------------------------------------------|
D|---------------------------------------------------------------------|
A|-7-7-7-7-7-7-7-7-10-10-10-10-10-10-12-12-9-9-9-9-9-9-9-9-12-12-14-14-|
E|---------------------------------------------------------------------|

e|------------------------------------------------------------------------|
B|------------------------------------------------------------------------|
G|------------------------------------------------------------------------|
D|------------------------------------------------------------------------|
A|-7-7-7-7-7-7-7-7-10-10-10-10-10-10-12-12-9-9-9-9-9-9-9-9-5-5-5-5-9--9-9-|
E|------------------------------------------------------------------------|

e|----------------------------------------------------------|
B|----------------------------------------------------------|
G|----------------------------------------------------------|
D|----------------------------------------------------------|
A|-7-7-7-7-7-7-7-7-10-10-10-10-10-10-12-12-9-9-9-9-9-9-9-9-7|
E|----------------------------------------------------------|
I think you could figure out the rest from here. :)
Tap to rate this tab
# A B C D E F G H I J K L M N O P Q R S T U V W X Y Z