David Lee Roth - Two Fools A Minute tab

Guitar Tabs Template @ Ultimate Guitar ArchiveGuitar Tabs Template
-----------------------------------------------------------------
Two Fools a Minute (INTRO) - David Lee Roth
-----------------------------------------------------------------
Tabbed by: ikjetil
Email:


e|-------------------------|-----------------------|----3-3------|
B|-------------------------|-----------------------|----3-3------|
G|-------3h4---------3h4---|-4-4-4p3-------5\3-----|-------------|
D|-------3---5-------3---5-|-3-3-3-------------5\3-|-------------|
A|---4-5---------4-5-------|--------5-5\3---------5|p3-----------|
E|-3-----------3-----------|-----------------------|-------------|
               A.H    A.H
e|-----------|---------------------------------------------------|
B|-----------|---------------------------------------------------|
G|-----------|-3b~-----------------------------------------------|
D|-----------|-----5p3-0~----------------------------------------|
A|-3-3-3-4-5-|---------------------------------------------------|
E|-1-1-1-2-3-|---------------------------------------------------|


Tablature Legend
----------------
 h   - hammer-on
 p   - pull-off
 b   - bend
 /\  - slide into or out of (from/to "nowhere")
A.H  - artificial harmonic
 ~   - vibrato
Tap to rate this tab
 
# A B C D E F G H I J K L M N O P Q R S T U V W X Y Z