Dead And Divine - To The Moon And Back Babe tab

Please rate and comment so I can fix up any mistakes

Tuning: Half-step down

Lead Intro (listen for timing, repeat as needed)
eb|----0---0----0---0-----0---0--|------0------0----0-------0-----|
Bb|------7--------7---------7----|----7------7--------7--------7--|
Gb|--4-------4---------4---------|--4-----4------4--------4-------|
Db|------------------------------|--------------------------------|
Ab|------------------------------|--------------------------------|
Eb|------------------------------|--------------------------------|

Rhythm intro (repeat as needed)
eb|----------------------|
Bb|----------------------|
Gb|----------------------|
Db|--22222222--44444444--|
Ab|--22222222--44444444--|
Eb|--00000000--22222222--|

The rhythm part doesn't really change the chords are the same 
you just ring them out more when he sings (Until the day) However, the 
lead part changes a little bit.

Lead (until the day)
eb|-----0~----0~-------------------0~----0~-----------------|
Bb|--------7~----------4~-------------7~------------4~------|
Gb|--4~-------------6~----6~---4~---------------6~------6~--|
Db|-------------6~--------------------------6~--------------|
Ab|---------------------------------------------------------|
Eb|---------------------------------------------------------|

Lead Continued (again repeat the whole thing as needed)
eb|--------------------------------|
Bb|-----4-------4-------4-----4----|
Gb|-------6-------6-------6-----6--|
Db|--6-------6-------6------6------|
Ab|--------------------------------|
Eb|--------------------------------|

"That his swells...."
Lead 
eb|--14~-----------14~--| 
Bb|------12~--12~-------|
Gb|---------------------|
Db|---------------------|
Ab|---------------------|
Eb|---------------------|

There is another guitar over the lead part, So I will name it Lead 2

Lead 2 (This isn't played all the way through so just listen for the timing)
eb|------------------------------------0----0--|
Bb|-----7~----7~-----7~------4------------7----|
Gb|--4~----4~-----4~-------6---6----4----------|
Db|---------------------6----------------------|
Ab|--------------------------------------------|
Eb|--------------------------------------------|

Rhythm "that his swells"
eb|-----------------------|
Bb|-----------------------|
Gb|-----------------------|
Db|---6~--6~--2222--4444--|
Ab|---6~--6~--2222--4444--|
Eb|---4~--4~--0000--2222--|

Rhythm continued
eb|---------------------------|
Bb|---------------------------|
Gb|---------6666--------------|
Db|--6~-6~--6666--2222--4444--|
Ab|--6~-6~--4444--2222--4444--|
Eb|--4~-4~--------0000--2222--|

There is a little break here Lead 2 and Rhythm guitar just go back to play
the intro riffs. While Lead 1 plays a solo

eb|----------------------------------------------------|
Bb|-----------------------------4h5p4---------4-5-7----|
Gb|------4---4h6-6b--4---4---4---------6-4-6-----------|
Db|--4-6---6-----------6---6---------------------------|
Ab|----------------------------------------------------|
Eb|----------------------------------------------------|

Solo continued
eb|----------------------------|
Bb|----------------------------|
Gb|--6/8/6--4-6-4-3-4----------|
Db|--------------------4/6/4~--|
Ab|----------------------------|
Eb|----------------------------|

then just play the verse riff

the rhythm changes just a little bit, as well as the lead 
but the lead still plays the same riffs. Just in a different pattern.
"at the moment he touches your face..."
eb|--------------------|
Bb|--------------------|
Gb|--------------------|
Db|--2222--4444--6666--|
Ab|--2222--4444--6666--|
Eb|--0000--2222--4444--|

play chorus after this

"to assure you forget about me"
Lead
eb|------0-----0--------14-------14-------14--|
Bb|----7-----7-------12-------12-------12-----|
Gb|--4-----4------13-------13-------13--------|
Db|-------------------------------------------|
Ab|-------------------------------------------|
Eb|-------------------------------------------|

Rhythm 
eb|---------------------------------------------|
Bb|---------------------------------------------|
Gb|---------------------------------------------|
Db|--66-44-2222--66-44-2222--66-44-2222--44444--|
Ab|--66-44-2222--66-44-2222--66-44-2222--44444--|
Eb|--44-22-0000--44-22-0000--44-22-0000--22222--|

"so it won't hurt so bad to see you love again"
Lead
eb|------0------0--------0-------0------------------------|
Bb|----7------7-----7------7--------7-----4------4-----4--|
Gb|--4-----4------4---4-------4-------------6------6------|
Db|------------------------------------6-------6-----6----|
Ab|-------------------------------------------------------|
Eb|-------------------------------------------------------|

Rhythm
eb|-----------------------|
Bb|-----------------------|
Gb|-----------------------|
Db|--2222--4444--6666--4--|
Ab|--2222--4444--6666--4--|
Eb|--0000--2222--4444--2--|

The end the two guitars just slowly fade out.

that's all that I got, again please rate and comment with suggestions,
questions, anything. Thanks, I hope that this has helped
Tap to rate this tab
 
# A B C D E F G H I J K L M N O P Q R S T U V W X Y Z