Song name
# A B C D E F G H I J K L M N O P Q R S T U V W X Y Z

Dead And Divine - Teeth tab

Teeth by Dead and Divine

Standard Tuning

Didn't see a tab for this so here you guys go.
If there was an acoustic version, these would be the chords. Enjoy!
My stumming pattern sounded like this, I thought it sounded about right.
D U U D U D D U D U D D U D D U

    C        Em7         G        Bm        Em         G
|---3---| |---3---| |---3---| |---2---| |---0---| |---3---|
|---1---| |---3---| |---3---| |---3---| |---0---| |---3---|
|---0---| |---0---| |---0---| |---2---| |---0---| |---0---|
|---2---| |---2---| |---0---| |---4---| |---2---| |---0---|
|---3---| |---2---| |---2---| |---4---| |---2---| |---2---|
|---0---| |---0---| |---3---| |---2---| |---0---| |---3---|


The second guitar part is:

e---3p2---3p2---3---3p2---|
b-------1-----1---1-----1-|
g-------------------------|
D-------------------------|
A-------------------------|
E-------------------------|

C                       Em7               G
Sink 'em in, loving how depravity tastes.
Bm                         Em                  G
As it runs down your lips, relief showers your face.
C                          Em7        G
We sleep all day, just to stay alive, 
Bm                              Em                G
just so we can all go out and die a little at night.

C-Em7-Bm

Aropax princess got herself a case of the shakes. 
She gets her fix too little too late.
Being easy ain't pretty my sugar coated baby, 
my achromatic, post-traumatic baby.
You are barely alive.
Something wicked this way comes. 
I've been looking for you along horizons.
Maybe that's why it took me so long.
If I don't beg you to stop, would I become one of them?
Could I be irresistible to you?
Could I be that shine in your spit?
Could I be the breath that you don't have?
Could I be the reflection that you seem to lack?
If it could kill me, would you let it?
Something wicked this way comes.
Something wicked this way comes. 
I've been looking for you along horizons.
Maybe that's why it took me so long.
If I don't beg you to stop, would I become one of them?
Sink 'em in, sink 'em in. Come on, come on.
Sink 'em in, sink 'em in. Come on, come on.
Sink 'em in, sink 'em in. Come on, come on.
Sink 'em in, sink 'em in. Come on, come on.
Tap to rate this tab
# A B C D E F G H I J K L M N O P Q R S T U V W X Y Z