Song name
# A B C D E F G H I J K L M N O P Q R S T U V W X Y Z

Dead By Sunrise - Let Down tab

Guitar 1 - E A D G B E (Clean w/chorus and reverb)
Guitar 2 - E A D G B E (Distorted, overdubbed(that's why theres no Guitar 3)
Guitar 4 - D A D G B E (Distorted)
Guitar 5 - E A D G B E (Acoustic guitar)
Guitar 6 - E A D G B E (Distorted, delay, and reverb)


(No guitar until halfway through first verse)
First Verse Part 2 - Guitar 1
|-------------0-----------------------0-----------------------3-----------------------3-----------|
|-------1-----------1-----------1-----------1-----------5-----------5-----------5-----------5-----|
|-2-----------------------2-----------------------4-----------------------4-----------------------|
|-------------------------------------------------------------------------------------------------|
|-------------------------------------------------------------------------------------------------|
Repeat until the verse ends


Chorus
|-------------------------------------------------------------------------------------------------|
|-------------------------------------------------------------------------------------------------|
|-2~----------------4--5~-------------------------------------------7~----------------------------|
|-2~----------------x--x--------------------------2~----------------x-----------------------------|
|-0~----------------2--3~-------------------------2~----------------5~----------------------------|
|-------------------------------------------------0~----------------------------------------------|
|Guitar 2

|-------------------------------------------------------------------------------------------------|
|-------------------------------------------------------------------------------------------------|
|-------------------------------------------------------------------------------------------------|
|-------------------------------------------------2~----------------0~----------------------------|
|-------------------------------------------------2~----------------0~----------------------------|
|-------------------------------------------------2~----------------0~----------------------------|
|Guitar 4
Repeat until the chorus ends


Post-Chorus - Guitar 5
|-0~----------------x--0~-------------------------0~----------0--0--0--0-----0-----0~-------------|
|-1~----------------x--0~-------------------------0~----------3--3--3--3-----0-----1~-------------|
|-2~----------------x--0~-------------------------0~----------0--0--0--0-----0-----0~-------------|
|-2~----------------x--2~-------------------------2~----------2--2--2--2-----2-----2~-------------|
|-0~----------------x--2~-------------------------3~----------3--3--3--3-----3-----3~-------------|
|-------------------x--0~-------------------------------------------------------------------------|


2nd Verse - Guitar 1
|-------------0-----------------------0-----------------------3-----------------------3-----------|
|-------1-----------1-----------1-----------1-----------5-----------5-----------5-----------5-----|
|-2-----------------------2-----------------------4-----------------------4-----------------------|
|-------------------------------------------------------------------------------------------------|
|-------------------------------------------------------------------------------------------------|
|-------------------------------------------------------------------------------------------------|
Rpeat until the verse ends


Guitar Solo
|-0--0--0--0--0--0--------------------0--------x--------------------------------------------------|
|-8--8--8--8--8--10-------------------0--0-----x--------------------------------------------------|
|-0--0--0--0--0-----7~----------------9--------x--7b9~---------------------r7~--------------------|
|------------------(0)-------------------------x--------------------------------------------------|
|-------------------------------------------------------------------------------------------------|
|-------------------------------------------------------------------------------------------------|
|Guitar 6

|-0--0--0--0--0--0--------------------0--------x--------------------------------------------------|
|-8--8--8--8--8--10-------------------0--0-----x--8b10~--------------------r8~--------------------|
|-0--0--0--0--0-----7~----------------9--------x--------------------------------------------------|
|------------------(0)-------------------------x--------------------------------------------------|
|-------------------------------------------------------------------------------------------------|
|-------------------------------------------------------------------------------------------------|

|-0--0--0--0--0--0--------------------------------------------------------------------------------|
|-8--8--8--8--8--10--------------------------------10b12~------------------r10~-------------------|
|-0--0--0--0--0-----7~----------------7--9--------------------------------------------------------|
|------------------(0)----------------0-----------------------------------------------------------|
|-------------------------------------------------------------------------------------------------|
|-------------------------------------------------------------------------------------------------|

|
|-0--0--0--0--0--0--------------------------------------------------------------------------------|
|-8--8--8--8--8--10-------------------------0-----------------------------------------------------|
|-0--0--0--0--0-----7~----------------7--9--------12~---------11~---------9~----------7~--------/-|
|------------------(0)----------------0-----------------------------------------------------------|
|-------------------------------------------------------------------------------------------------|
|-------------------------------------------------------------------------------------------------|
Tap to rate this tab
 
# A B C D E F G H I J K L M N O P Q R S T U V W X Y Z