Deas Vail - Shoreline tab

-------------------------------------------------------------------------------
			     Shoreline - Deas Vail
-------------------------------------------------------------------------------
Tuning:standard
I got this by watching a couple piano tutorials on youtube.

This is what the right hand plays on the piano. Left hand down below
intro/verse
e|------11-------------9----------------------------------------|
B|-11-14--14-(x4)--9-11-11-(x4)--7-9-11-9-(x4)--6-7-9-7-(x4)----|
G|--------------------------------------------------------------|
D|-------------------------(sometimes the last part is x2)------|
A|--------------------------------------------------------------|
E|--------------------------------------------------------------|

(1:36)                               
e|(-----9--------------------------------------------------)----|
B|(-9-11-11-(x2)--6-7-9-7-(x2)--7-9-11-9-(x2)--6-7-9-7-(x2))x2--|
G|(--------------------------------------------------------)----|
D|--------------------------------------------------------------|
A|--------------------------------------------------------------|
E|--------------------------------------------------------------|
(1:53)
e|------9-------------------------------------------------------|
B|--9-11-11-(x8)------------------------------------------------|
G|--------------------------------------------------------------|
D|--------------------------------------------------------------|
A|--------------------------------------------------------------|
E|--------------------------------------------------------------|

then 2:02 back to verse

(2:50)
e|(-----9--------------------------------------------------)----|
B|(-9-11-11-(x2)--6-7-9-7-(x2)--7-9-11-9-(x2)--6-7-9-7-(x2))x3--|
G|(--------------------------------------------------------)----|
D|--------------------------------------------------------------|
A|--------------------------------------------------------------|
E|--------------------------------------------------------------|
(3:15)
e|------9---------------------------9---------------------------|
B|--9-11-11-(x2)--6-7-9-7-(x2)--9-11-11-(x2)--6-7-9-7-(x2)------|
G|--------------------------------------------------------------|
D|--------------------------------------------------------------|
A|--------------------------------------------------------------|
E|--------------------------------------------------------------|

(3:23) now this part for the rest of the song
e|---------14-16--------11--------------------------------------|
B|-11-12-14--------11-11--14---11--11---------------------------|
G|-------------------------------13--10-------------------------|
D|--------------------------------------------------------------|
A|--------------------------------------------------------------|
E|--------------------------------------------------------------|

*left hand piano parts*
intro/verse
e|--------------------------------------------------------------|
B|-7-9-11-9-(x4)--0-4-7-4-(x4)--4-6-7-6-(x4)----4-6-4-(x4)------|
G|--------------------------------------------6-----------------|
D|-------------------------(sometimes the last part is x2)------|
A|--------------------------------------------------------------|
E|--------------------------------------------------------------|
(1:36)                               
e|(--------------------------------------------------------)----|
B|(-0-4-7-4-(x2)----4-6-4-(x2)--4-6-7-6--(x2)----4-6-4-(x2))x2--|
G|(---------------6----------------------------6-----------)----|
D|--------------------------------------------------------------|
A|--------------------------------------------------------------|
E|--------------------------------------------------------------|
(1:53)
e|--------------------------------------------------------------|
B|--0-4-7-4-(x8)------------------------------------------------|
G|--------------------------------------------------------------|
D|--------------------------------------------------------------|
A|--------------------------------------------------------------|
E|--------------------------------------------------------------|
then 2:02 back to verse
(2:50)
e|(--------------------------------------------------------)----|
B|(-0-4-7-4-(x2)----4-6-4-(x2)--4-6-7-6--(x2)----4-6-4-(x2))x3--|
G|(---------------6----------------------------6-----------)----|
D|--------------------------------------------------------------|
A|--------------------------------------------------------------|
E|--------------------------------------------------------------|
(3:15)
e|--------------------------------------------------------------|
B|--0-4-7-4-(x2)----4-6-4-(x2)--0-4-7-4-(x2)----4-6-4-(x2)------|
G|----------------6---------------------------6-----------------|
D|--------------------------------------------------------------|
A|--------------------------------------------------------------|
E|--------------------------------------------------------------|
(3:23) then I think it keeps doing this the rest of the song



Tap to rate this tab
 
# A B C D E F G H I J K L M N O P Q R S T U V W X Y Z