Song name
# A B C D E F G H I J K L M N O P Q R S T U V W X Y Z

Deas Vail - Desire tab

-------------------------------------------------------------------------------
			     Deas Vail - Desire
-------------------------------------------------------------------------------
Tabbed by: Dzung Nguyen
Email: punkrockingamerx@Hotmail.com

Intro and Bridge to Outro, all on guitar

This was my first tab attempt. It was done by ear which felt awesome when I figured it out.

Thanks for checking it out!

Tuning: standard

Intro

e|---------------------------------------------------------------------------|
B|---------------------------------------------------------------------------|
G|---------------------------------------------------------------------------|
D|---------------------------------------------------------------------------|
A|---------------------------------------------------------------------------|
E|--7-7-77\3-3-33-3-3-33/5-5-55----------------------------------------------|


Bridge/Outro

e|-------------9-9-9-10-10-10-------------10-10-10-12-12-12------------------|
B|-7-7-7-7-7-7----------------8-8-8-8-8-8-------------------10-10-10-10-10-10|
G|---------------------------------------------------------------------------|
D|---------------------------------------------------------------------------|
A|---------------------------------------------------------------------------|
E|---------------------------------------------------------------------------|

e|-14-14-14-12-12-14-------------17-17-17-15-15-14---------------------------|
B|-------------------8-8-8-8-8-8---------------------------------------------|
G|---------------------------------------------------------------------------|
D|---------------------------------------------------------------------------|
A|---------------------------------------------------------------------------|
E|---------------------------------------------------------------------------|

************************************

| /   slide up
| \   slide down

************************************
Tap to rate this tab
# A B C D E F G H I J K L M N O P Q R S T U V W X Y Z