Song name
# A B C D E F G H I J K L M N O P Q R S T U V W X Y Z

Deathstars - Play God tab

=================================================================================

			Play God
=================================================================================

By:  Deathstars
Album: Termination Bliss

Tabbed by: John Moores
mooresjw@email.uc.edu



Drop C Tuning (CGCFAD)

* = Palm Mute
@ = Pinched harmonic
x = muted



0:28
|---------------------------------------------------------|
|---------------------------------------------------------|
|---------------------------------------------------------|
|---------------------------------------------------------| x2
|--10--10-10--10-10---10-10-10--9--5--6--6-6-6-6--5-6--9--|
|--10--10-10--10-10---10-10-10--9--5--6--6-6-6-6--5-6--9--|
          *      *                       * *   *

Verse 1
0:42
|---------------------------------------|
|---------------------------------------|
|---------------------------------------|
|--5-5----5--5----5-5----5--5-----------|
|--5-5----5--5----5-5----5--5-----------|
|--5-5--5-5--5----5-5--5-5--5--6@-------|
         *             *
|---------------------------------------|
|---------------------------------------|
|---------------------------------------|
|--5-5----5--5----5-5----5--5--6--------|
|--5-5----5--5----5-5----5--5--6--------|
|--5-5--5-5--5----5-5--5-5--5--6--------|
         *             *

Pre-chorus
0:57
|-------------------------------------------------------|
|-------------------------------------------------------|
|-------------------------------------------------------|
|--3--5--6--8---5-5----5-5-----5-5----------------------|
|--3--5--6--8---3-3--3-3-3--3--3-3----------------------|
|--3--5--6--8-------------------------------------------|
                     *      *
|-------------------------------------------------------|
|-------------------------------------------------------|
|-------------------------------------------------------|
|--3--5--6--8---5-5----5-5-----5-5----------------------|
|--3--5--6--8---5-5----5-5-----5-5----------------------|
|--3--5--6--8---5-5--5-5-5--5--5-5----------------------|
                     *      *

Chorus
1:11

|---------------------------------------------------------|
|---------------------------------------------------------|
|---------------------------------------------------------|
|---------------------------------------------------------|
|--10----10-9--5-6--8--3-----10----10-9--5-6--3---8-------|
|--10----10-9--5-6--8--3-----10----10-9--5-6--3---8-------|


Verse 2
1:25

|---------------------------------------|
|---------------------------------------|
|---------------------------------------|
|--5-5----5--5----5-5----5--5-----------|
|--5-5----5--5----5-5----5--5-----------|
|--5-5--5-5--5----5-5--5-5--5--6@-------|
         *             *
|---------------------------------------|
|---------------------------------------|
|---------------------------------------|
|--5-5----5--5----5-5----5--5-----------|
|--5-5----5--5----5-5----5--5-----------|
|--5-5--5-5--5----5-5--5-5--5-----------|
         *             *


Pre-chorus
1:39

|-------------------------------------------------------|
|-------------------------------------------------------|
|-------------------------------------------------------|
|--3--5--6--8---5-5----5-5-----5-5----------------------|
|--3--5--6--8---3-3--3-3-3--3--3-3----------------------|
|--3--5--6--8-------------------------------------------|
                     *      *
|-------------------------------------------------------|
|-------------------------------------------------------|
|-------------------------------------------------------|
|--3--5--6--8---5-5----5-5-----5-5----------------------|
|--3--5--6--8---5-5----5-5-----5-5----------------------|
|--3--5--6--8---5-5--5-5-5--5--5-5----------------------|
                     *      *

Chorus
1:53

|---------------------------------------------------------|
|---------------------------------------------------------|
|---------------------------------------------------------|
|---------------------------------------------------------| x2
|--10----10-9--5-6--8--3-----10----10-9--5-6--3---8-------|
|--10----10-9--5-6--8--3-----10----10-9--5-6--3---8-------|


Intro Riff
2:22

|---------------------------------------------------------|
|---------------------------------------------------------|
|---------------------------------------------------------|
|---------------------------------------------------------| x2
|--10--10-10--10-10---10-10-10--9--5--6--6-6-6-6--5-6--9--|
|--10--10-10--10-10---10-10-10--9--5--6--6-6-6-6--5-6--9--|
          *      *                       * *   *

Bridge
2:35
|-------------------------------------------------------|
|-------------------------------------------------------|
|-------------------------------------------------------|
|---3----5--------3----5--------------------------------|
|---3----5--------3----5-----/6--5----------------------|
|---3----5--------3----5--------------------------------|


Pre-chorus
3:04

|-------------------------------------------------------|
|-------------------------------------------------------|
|-------------------------------------------------------|
|--3--5--6--8---5-5----5-5-----5-5----------------------|
|--3--5--6--8---3-3--3-3-3--3--3-3----------------------|
|--3--5--6--8-------------------------------------------|
                     *      *
|-------------------------------------------------------|
|-------------------------------------------------------|
|-------------------------------------------------------|
|--3--5--6--8---5-5----5-5-----5-5----------------------|
|--3--5--6--8---5-5----5-5-----5-5----------------------|
|--3--5--6--8---5-5--5-5-5--5--5-5----------------------|
                     *      *

Chorus (1 whole step up)
3:19
|---------------------------------------------------------|
|---------------------------------------------------------|
|---------------------------------------------------------|
|---------------------------------------------------------| x2
|--12----12-11--7-8--10--5----12--10---12-11--7-8--5---10-|
|--12----12-11--7-8--10--5----12--10---12-11--7-8--5---10-|


Bridge
3:50
|-------------------------------------------------------|
|-------------------------------------------------------|
|-------------------------------------------------------|
|---5----7--------5----7--------------------------------|
|---5----7--------5----7--------------------------------|
|---5----7--------5----7-----/3--2----------------------|

Tap to rate this tab
# A B C D E F G H I J K L M N O P Q R S T U V W X Y Z