Song name
# A B C D E F G H I J K L M N O P Q R S T U V W X Y Z

Deerhunter - Agoraphobia tab

Artist: Deerhunter
Album: Microcastle
Song: Agoraphobia

Tuning: Standard (EADGBe)

Tabbed by Samuelblitz

Chord Tabs:

     A   E   F#  A7   B7   G#
e|---0---0---2---5----7----4-------------------------------------------|
B|---2---0---2---5----7----4-------------------------------------------|
G|---2---1---3---6----8----5-------------------------------------------|
D|---2---2---4---5----7----6-------------------------------------------|
A|---0---2---4---7----9----6-------------------------------------------|
E|---x---0---2---5----7----4-------------------------------------------|

Chorus:

Guitar 1:  (Lead Guitar)

           Part A                           Part B
e|---------------------------|--------------------------------|
B|-----9-----7------9-----7--|------7------5------7---5----4--|
G|-66----66-----66-----66----|--44-----44-----44--------------|
D|---------------------------|--------------------------------|    X  4
A|---------------------------|--------------------------------|
E|---------------------------|--------------------------------|

Guitar 2:  (Backing Chords)

Part A       Part B
                      X  4
  A            E

Verse:

Guitar 1:  (Lead Guitar)

              Part A                           Part B
e|--------------------------------|---------------------------------|
B|--4-2---4-2---4-2---4-2---4-2---|--2-0-2-0-2-0-2-0-2-0-2-0-2-0-2-0|
G|-----3-----3-----3-----3-----3--|---------------------------------|
D|--------------------------------|---------------------------------|
A|--------------------------------|---------------------------------|
E|--------------------------------|---------------------------------|

       Part C
e|-------------------|
B|-0-0-0-0-0-0-0-0---|
G|--1-1-1-1-1-1-1-1--|   X  2
D|-------------------|
A|-------------------|
E|-------------------|


Guitar 2: (Backing Chords)

Part A       Part B          Part C
                                     X  2
 F#           A7 / B7         G#

Sequence:

Chorus
Verse
Chorus
Verse
Chorus (Instrumental)
Verse (Instrumental)
1/2 Verse (Instrumental)
Tap to rate this tab
 
# A B C D E F G H I J K L M N O P Q R S T U V W X Y Z