Song name
# A B C D E F G H I J K L M N O P Q R S T U V W X Y Z

Def Leppard - Heat Street tab

#----------------------------------PLEASE NOTE---------------------------------#
#This file is the author's own work and represents their interpretation of the #
#song. You may only use this file for private study, scholarship, or research. #
#------------------------------------------------------------------------------##
Date: Wed, 23 Aug 1995 01:07:05 -0400 (EDT)
From: Gary and Teresa Vander Ploeg 
Subject: TAB Heat Street, Def Leppard
                      From the bootleg album "FIRST STRIKE"
            words and music by: Elliot, Clarke, Willis, Savage, Allen
 
Here's one that is not very common.  The First Strike album was illegally
released just after Pyromania.  It was made up of early demo tapes that were
remixed.  Leppard secured a court injunction against the album's sale citing
that the quality was not up to current Leppard standards.  I have it on tape
from a friend and this is the first track.  It's a cool song, I wish they had
done this on an album.  There are also two other otherwise unreleased songs on
this "album:"  See The Light, and Glad I'm Alive.
 
The timing of the riffs is quite syncopated so if you've never heard the song
before, you probably won't get it quite right just from this.  If you want the
timing, email me and I'll see what I can do.
 
v = Palm mute
/ = Slide up
\ = Slide down
/B\ = Bend
~ = Vibrato
^ = Hammer on/off
       A             C             E             F             G
0 X-0-------X 0 X---X-0---0 0 X-X-------X 0 X-X-------X 0 --X-0-0-0-X
  | | | | | |   | | | | | |   | | | | | |   | | | | | |   | | | | | |
  -----------   --------1--   -----------   -----------   -----------
  | | | | | |   | | | | | |   | | | | | |   | | | | | |   | | | | | |
  ----1-1-1--   -----------   ----1------   -----------   -----------
* | | | | | | * | | | | | | * | | | | | | * | | | | | | * | | | | | | *
  -----------   --3--------   -----------   ----1------   2----------
  | | | | | |   | | | | | |   | | | | | |   | | | | | |   | | | | | |
  -----------   -----------   ------3----   -----------   -----------
* | | | | | | * | | | | | | * | | | | | | * | | | | | | * | | | | | | *
  -----------   -----------   --------4--   ------3----   -----------
  | | | | | |   | | | | | |   | | | | | |   | | | | | |   | | | | | |
  -----------   -----------   -----------   --------4--   -----------
* | | | | | | * | | | | | | * | | | | | | * | | | | | | * | | | | | | *
 
       D             Bb
0 X-X-O------ 5 -----------
  | | | | | | * | | | | | | *
  -----------   1-------1-1
  | | | | | |   | | | | | |
  ------1----   ------2----
* | | | | | | * | | | | | | *
  --------2--   --3-4------
  | | | | | |   | | | | | |
  -----------   -----------
* | | | | | | * | | | | | | *
 
RIFF 'A'
   C G  D    D  C G  D    D  C G  D    D  D  
E|--------------------------------------------------------------------
B|-------------------------------------------------3--5--6--5-3------- <2ND
G|-5----7----7--5----7----7--5----7----7--7--2--3-------------^-5----- 
                    
Tap to rate this tab
# A B C D E F G H I J K L M N O P Q R S T U V W X Y Z