Song name
# A B C D E F G H I J K L M N O P Q R S T U V W X Y Z

Deus - Roses tab

This is prob not 100% right but i think it sounds pretty accurate. Enjoy.

This rhythm riff is played generally the whole song with a clean tone.
e------------------------------------------------------------|
B------------------------------------------------------------|
G-------------------6-6-6-6-6-6-6-6--------------------------|
D---4-4-4-4-4-4-4-4-6-6-6-6-6-6-6-6-3-3-3-3-3-3-3-3----------|
A---4-4-4-4-4-4-4-4-4-4-4-4-4-4-4-4-3-3-3-3-3-3-3-3----------|
E---2-2-2-2-2-2-2-2-----------------1-1-1-1-1-1-1-1----------|


Odd Bit. (1:50 until 1:54)
e------------------------------------------------------------|
B------------------------------------------------------------|
G------------------------------------------------------------|
D---4-4-4-3-3-3-4-4-4-1-1-1----------------------------------|
A---4-4-4-3-3-3-4-4-4-3-3-3----------------------------------|
E---2-2-2-1-1-1-2-2-2-3-3-3----------------------------------|

Distortion kicks in for bout two seconds. The strumming pattern you can figure out.
e--------------|
B--------------|
G---3-3-3-3-3-3|
D---3-3-3-3-3-3|
A---1-1-1-1-1-1|
E--------------|

At 2:35 till 2:51, guitar 1 guitar plays this in the background
e------------------------------------------------------------|
B------------------------------------------------------------|
G------------------------------------------------------------|
D---4-4-4-4-4-4-4-4-4-4-4-4-4-4-4-4-4-4-4-4-4-4-4-4-4-4-4-4-4|
A------------------------------------------------------------|
E------------------------------------------------------------|

Guitar 2 joins in after a while with some effects. (2:36 till 3:06)
e------------------------------------------------------------|
B------------------------------------------------------------|
G------------------------------------------------------------|
D-------7-----------------6----------------------------------|
A---7-9----------7----6-8------14\---------------------------|
E------------7-9---------------------------------------------| X4

At 3:16 distortion kicks in for the rhythm guitar.
e------------------------------------------------------------|
B------------------------------------------------------------|
G-------------------6-6-6-6-6-6-6-6--------------------------|
D---4-4-4-4-4-4-4-4-6-6-6-6-6-6-6-6-3-3-3-3-3-3-3-3----------|
A---4-4-4-4-4-4-4-4-4-4-4-4-4-4-4-4-3-3-3-3-3-3-3-3----------|
E---2-2-2-2-2-2-2-2-----------------1-1-1-1-1-1-1-1----------|

AT 3:48
e------------------------------------------------------------|
B---^16-^16-^16-^16-^16-^16-^16-^16-^16-^16-^16-^16-^16------|
G------------------------------------------------------------|
D------------------------------------------------------------|
A------------------------------------------------------------|
E------------------------------------------------------------|

There you have it. Roses by dEUS. Might not be perfect but hey it's my first tab and I'm happy with it. 


Tap to rate this tab
 
# A B C D E F G H I J K L M N O P Q R S T U V W X Y Z