Song name
# A B C D E F G H I J K L M N O P Q R S T U V W X Y Z

Devotchkas - Annihilation tab

Annihilation - Devotchkas - Annihilation

Intro/Verse
e|-----------------------|
b|-----------------------|
g|--10-------------7--5--|
d|--10--10--12--8--7--5--|
a|---8--10--12--8--5--3--|
E|-------8--10--6--------|

Chorus Part 1
e|------------|---------|
b|------------|---------|
g|-----7------|---------|
d|--8--7--10--|--8--10--|
a|--8--5--10--|--8--10--|
E|--6------8--|--6---8--|

Chorus Part 2
e|-------------------------|
b|-------------------------|
g|--10----------10---------|
d|--10--10--12--10--10--8--|
a|---8--10--12---8--10--8--|
E|-------8--10-------8--6--|
Tap to rate this tab
 
# A B C D E F G H I J K L M N O P Q R S T U V W X Y Z