Song name
# A B C D E F G H I J K L M N O P Q R S T U V W X Y Z

Devotchkas - What Happened tab

What Happened? - Devotchkas - Live Fast Die Young

Intro
e|-----------------|
b|-----------------|
g|--7--5--3-----5--|
d|--7--5--3--7--5--|
a|--5--3--1--7--3--|
E|-----------5-----|

Verse
e|---------|
b|---------|
g|--7--10--|
d|--7--10--|
a|--5---8--|
E|---------|

Chorus
e|------------|
b|------------|
g|--7---------|
d|--7--10--9--|
a|--5--10--9--|
E|------8--7--|
Tap to rate this tab
# A B C D E F G H I J K L M N O P Q R S T U V W X Y Z