Song name
# A B C D E F G H I J K L M N O P Q R S T U V W X Y Z

Devotchkas - Live Fast Die Young tab

1. Pseudo Personality - Devotchkas - Live Fast Die Young

Intro/Solo
e|--12-12-12-12-12-15-12-------12-------------------15----12-|
b|-----------------------15-15----12-12-12-12-12-12----15----|
g|-----------------------------------------------------------|
d|-----------------------------------------------------------|
a|-----------------------------------------------------------|
E|-----------------------------------------------------------|

Verse
e|--------------|
b|--------------|
g|--------------|
d|--2--7--9--7--|
a|--2--7--9--7--|
E|--0--5--7--5--|

Chorus
e|-----------------|
b|-----------------|
g|-----------7-----|
d|--2--7--9--7--9--|
a|--2--7--9--5--9--|
E|--0--5--7-----7--|

Outro
e|--------------------|
b|--------------------|
g|-----7--------7-----|
d|--9--7--9--9--7--2--|
a|--9--5--9--9--5--2--|
E|--7-----7--7-----0--|


2. Wicked Heart - Devotchkas - Live Fast Die Young

Intro Part 1
e|-----------------|
b|-----------------|
g|-----------------|
d|-----------------|
a|-----5--4--------|
E|--7--------5--3--|

Intro Part 2/Verse
e|--------------------------|
b|--------------------------|
g|-----7--6-----------7--6--|
d|--9--7--6--7--5--7--7--6--|
a|--9--5--4--7--5--7--5--4--|
E|--7--------5--3--5--------|

Chorus
e|--------------------|
b|--------------------|
g|-----7-----6--7--6--|
d|--9--7--7--6--7--6--|
a|--9--5--7--4--5--4--|
E|--7-----5-----------|


3. Negative Reaction - Devotchkas - Live Fast Die Young

Intro/Verse
e|-------------------------------------|
b|-------------------------------------|
g|--7--9--7-------------7--5--7--9--7--|
d|--7--9--7--10--5--10--7--5--7--9--7--|
a|--5--7--5--10--5--10--5--3--5--7--5--|
E|------------8--3---8-----------------|

Chorus
e|--------------|--------|
b|--------------|--------|
g|--7-----------|--------|
d|--7--7--8--7--|--5--7--|
a|--5--7--8--7--|--5--7--|
E|-----5--6--5--|--3--5--|


4. Pushed To The Limit - Devotchkas - Live Fast Die Young

Verse
e|---------------------|
b|---------------------|
g|--7--11--9-----------|
d|--7--11--9--7--5--4--|
a|--5---9--7--7--5--4--|
E|------------5--3--2--|

Chorus
e|-----------------|
b|-----------------|
g|-----9--7--5-----|
d|--5--9--7--5--5--|
a|--5--7--5--3--5--|
E|--3-----------3--|


5. Live Fast Die Young - Devotchkas - Live Fast Die Young

Intro (w/pm)/Verse/Chorus
e|--------------|--------------|
b|--------------|--------------|
g|-----7--------|-----7--------|
d|--9--7--7--9--|--9--7--5--7--|
a|--9--5--7--9--|--9--5--5--7--|
E|--7-----5--7--|--7-----3--5--|

e|-----------|
b|-----------|
g|-----------|
d|--5--7--9--|
a|--5--7--9--|
E|--3--5--7--|


6. Travel In Packs - Devotchkas - Live Fast Die Young

Intro/Verse
e|--------------------|
b|--------------------|
g|--6-----------------|
d|--6--9--7--6--7--6--|
a|--4--9--7--6--7--6--|
E|-----7--5--4--5--4--|

Chorus
e|--------------|
b|--------------|
g|-----6--------|
d|--2--6--6--7--|
a|--2--4--6--7--|
E|--0-----4--5--|


7. What Happened? - Devotchkas - Live Fast Die Young

Intro
e|-----------------|
b|-----------------|
g|--7--5--3-----5--|
d|--7--5--3--7--5--|
a|--5--3--1--7--3--|
E|-----------5-----|

Verse
e|---------|
b|---------|
g|--7--10--|
d|--7--10--|
a|--5---8--|
E|---------|

Chorus
e|------------|
b|------------|
g|--7---------|
d|--7--10--9--|
a|--5--10--9--|
E|------8--7--|


8. Transparent Creed - Devotchkas - Live Fast Die Young

Intro/Verse
e|-----------------|
b|-----------------|
g|-----5--7--4--5--|
d|--5--5--7--4--5--|
a|--5--3--5--2--3--|
E|--3--------------|

Chorus
e|-----------------|
b|-----------------|
g|-----5-----9--7--|
d|--5--5--5--9--7--|
a|--5--3--5--7--5--|
E|--3-----3--------|


9. Gone Crazy - Devotchkas - Live Fast Die Young

Intro/Verse
e|----------------|
b|----------------|
g|--11--9---------|
d|--11--9--9--11--|
a|---9--7--9--11--|
E|---------7---9--|

Chorus
e|-----------------|
b|-----------------|
g|-----9-----------|
d|--9--9--9--7--9--|
a|--9--7--9--7--9--|
E|--7-----7--5--7--|


10. Her Love Is Innocence - Devotchkas - Live Fast Die Young

Intro/Verse
e|----------------------------|
b|----------------------------|
g|--9---------12--14--12--11--|
d|--9--9--10--12--14--12--11--|
a|--7--9--10--10--12--10---9--|
E|-----7---8------------------|

Chorus
e|---------------|
b|---------------|
g|---------------|
d|--7--10--5--7--|
a|--7--10--5--7--|
E|--5---8--3--5--|

e|---------------------|
b|---------------------|
g|---------------------|
d|--7--10--5--7--5--4--|
a|--7--10--5--7--5--4--|
E|--5---8--3--5--3--2--|


11. Like Animals - Devotchkas - Live Fast Die Young

Intro
e|--------------|
b|--------------|
g|--7--5--7--5--|
d|--7--5--7--5--|
a|--5--3--5--3--|
E|--------------|

Verse (spoken pm)
e|------------------------|
b|------------------------|
g|-----10--5--7--5--7--5--|
d|--7--10--5--7--5--7--5--|
a|--7---8--3--5--3--5--3--|
E|--5---------------------|

Chorus
e|---------------------------|
b|---------------------------|
g|-----7-----7-----7--10--5--|
d|--7--7--7--7--7--7--10--5--|
a|--7--5--7--5--7--5---8--3--|
E|--5-----5-----5------------|


12. Poogly - Devotchkas - Live Fast Die Young

e|---------------------|
b|---------------------|
g|--11--7-----9--------|
d|--11--7--9--9--7--9--|
a|---9--5--9--7--7--9--|
E|---------7-----5--7--|

e|-----------------|--------|
b|-----------------|--------|
g|-----8--9--------|--------|
d|--9--8--9--------|--7--9--|
a|--9--6--7--[x3]--|--7--9--|
E|--7--------------|--5--7--|

e|--------|
b|--------|
g|--------|
d|--7--9--|
a|--7--9--|
E|--5--7--|
Tap to rate this tab
# A B C D E F G H I J K L M N O P Q R S T U V W X Y Z