Song name
# A B C D E F G H I J K L M N O P Q R S T U V W X Y Z

Devotchkas - Gone Crazy tab

Gone Crazy - Devotchkas - Live Fast Die Young

Intro/Verse
e|----------------|
b|----------------|
g|--11--9---------|
d|--11--9--9--11--|
a|---9--7--9--11--|
E|---------7---9--|

Chorus
e|-----------------|
b|-----------------|
g|-----9-----------|
d|--9--9--9--7--9--|
a|--9--7--9--7--9--|
E|--7-----7--5--7--|
Tap to rate this tab
# A B C D E F G H I J K L M N O P Q R S T U V W X Y Z