Song name
# A B C D E F G H I J K L M N O P Q R S T U V W X Y Z

Devotchkas - Damaged Goods tab

Damaged Goods - Devotchkas - Annihilation

Intro/Verse
e|---------------|
b|---------------|
g|-----4--5--7---|
d|--5--4--5--7---|
a|--5--2--3--5---|
E|--3------------|

Chorus
e|---------------|
b|---------------|
g|--7--5-----4---|
d|--7--5--5--4---|
a|--5--3--5--2---|
E|--------3------|
Tap to rate this tab
# A B C D E F G H I J K L M N O P Q R S T U V W X Y Z