Song name
# A B C D E F G H I J K L M N O P Q R S T U V W X Y Z

Devotchkas - Sorry tab

Sorry - Devotchkas - Annihilation

Intro
e|--------------|
b|--------------|
g|-----4--5--7--|
d|--5--4--5--7--|
a|--5--2--3--5--|
E|--3-----------|

Verse
e|--------------------------------------|
b|--------------------------------------|
g|-----4--5--7-----4--5--------4--5--7--|
d|--5--4--5--7--5--4--5--7--5--4--5--7--|
a|--5--2--3--5--5--2--3--7--5--2--3--5--|
E|--3-----------3--------5--3-----------|

Chorus
e|--------------------------------------|
b|--------------------------------------|
g|--5-----5-----7--5-----5--------5--7--|
d|--5--5--5--5--7--5--5--5--5--7--5--7--|
a|--3--5--3--5--5--3--5--3--5--7--3--5--|
E|-----3-----3--------3-----3--5--------|

Outro
e|--------------|
b|--------------|
g|--5-----5-----|
d|--5--5--5--5--|
a|--3--5--3--5--|
E|-----3-----3--|
Tap to rate this tab
# A B C D E F G H I J K L M N O P Q R S T U V W X Y Z