Song name
# A B C D E F G H I J K L M N O P Q R S T U V W X Y Z

Dick Dale - Misirlou tab

#----------------------------------PLEASE NOTE--------------------------------#
#This file is the author's own work and represents their interpretation of the#
#song. You may only use this file for private study, scholarship, or research.#
#-----------------------------------------------------------------------------#
#-- File created with Instab - http://www.pconline.com/~smcarey/instab.html --#
#-----------------------------------------------------------------------------#

Author/Artist: Dick Dale & The Del-Tones
Title: Misirlou
Transcribed by: Saverain
v strum down
^ strum up
/ slide up
\ slide down

Hint: Strum near the bridge.  Bass arranged for guitar.

D tuning w/reverb

--------------|----|---------------------------------------------------------|
--------------|----|---------------------------------------------------------|
--------------|----|---------------------------------------------------------|
--------------|-7\-|---------------------------------------------------------|
--------------|----|---------------------------------------------------------|
--------------|----|-2--2--2-2-2-2-2--2-2-2-2-2-2-2-2-2--2-2-2-2-2--2-2-2-2--|
   Bass Arr. guitar  v  v  v ^ v ^ v  v ^ v ^ v ^ v ^ v  v ^ v ^ v  v ^ v ^

----|-------------------------------------------------------------------------|
----|-------------------------------------------------------------------------|
----|-------------------------------------------------------------------------|
----|-------------------------------------------------------------------------|
----|-------------------------------------------------------------------------|
----|-2-2-2-2-2-6-7-7-7-7-9-9-9-9-10-10-10-10-10-11-13-13-13-10--7--9-9-9-9-9-|
      v ^ v ^ v v v ^ v ^ v ^ v ^ v  ^  v  ^  v  v  v  ^  v  v   ^  v ^ v ^v

-------------------------------------------|--|-------------|-----------------|
-------------------------------------------|--|-------------|-----------------|
-------------------------------------------|--|-------------|-----------------|
-------------------------------------------|2x|-------------|-----------------|
-------------------------------------------|--|-------------|-----------------|
-9-9-9-9-9-9-9-9-9-9-9-9-9-9-9-9-9-9-9-9-9-|--|-7-7-6-6-4-4-|-----------------|
v v ^ v ^ v v v ^ v ^ v ^ v ^ v v v ^ v ^      1st ending

------|-----------------------------------------------------------------------|
------|-----------------------------------------------------------------------|
------|-----------------------------------------------------------------------|
------|-----------------------------------------------------------------------|
------|-----------------------------------------------------------------------|
------|-10--9-10-9--10--9-9-9--7-7-7--9--7-9-7--9--7-7-7--6--2--6-6-6-6-6-6-6-|
       2nd Ending
------------------------------------------------------------------------------|
------------------------------------------------------------------------------|
------------------------------------------------------------------------------|
------------------------------------------------------------------------------|
------------------------------------------------------------------------------|
-6-6-6-6-6-6-6-6-6-6-6-6-6-6-6-6-6-6-6-6-6-6-6-6-2--9-9-9--7--9--7-7-7--6-6-6-|


---------------------------------------------------------|-------|---------|--|
---------------------------------------------------------|-------|---------|--|
---------------------------------------------------------|-------|-x\x\x\x-|--|
---------------------------------------------------------|-------|---------|--|
---------------------------------------------------------|-------|---------|--|
--7--6-7-6--7--6-\-3--6--2-2-2-2-2-2-2-2-2-2-2--2--2--2--|-------|---------|--|
                                             pm>v  v  v<          pick slide

-----|-0--0-0-0---------------------------------------------------------------|
-----|-5--5-5-5-9-10-10-10-10-12-12-12-12-13-13-13-13-13-14-16-16-16-13--10---|
-----|-4--4-4-4---------------------------------------------------------------|
-----|------------------------------------------------------------------------|
-----|------------------------------------------------------------------------|
-----|------------------------------------------------------------------------|
     Guitar part  2nd time start w/ 5 5 5 5 5 like bass

------------------------------------------------------------------------------|
-12-12-12-12-12-12-12-12-12-12-12-12-12-12-12-12-12-12-12-12-12-12-12-12-12---|
------------------------------------------------------------------------------|
------------------------------------------------------------------------------|
------------------------------------------------------------------------------|
------------------------------------------------------------------------------|


----|--|---------------|------------------------------------------------------|
-12-|--|-10-10-9-9-7-7-|------------------------------------------------------|
----|--|---------------|------------------------------------------------------|
----|2x|---------------|------------------------------------------------------|
----|--|---------------|------------------------------------------------------|
----|--|---------------|------------------------------------------------------|
        1st end

-----|------------------------------------------------------------------------|
-----|-13--12-13-12--13--12-12-12--10-10-10--12--10-12-10--12--10-10-10--9--5-|
-----|------------------------------------------------------------------------|
-----|------------------------------------------------------------------------|
-----|------------------------------------------------------------------------|
-----|------------------------------------------------------------------------|
      2nd end

------------------------------------------------------------------------------|
---9-9-9-9-9-9-9-9-9-9-9-9-9-9-9-9-9-9-9-9-9-9-9-9-9-9-9-9-9-9-5--12-12-12----|
------------------------------------------------------------------------------|
------------------------------------------------------------------------------|
------------------------------------------------------------------------------|
------------------------------------------------------------------------------|


-------------------------------------------------------7----|-----------------|
-10--12--10-10-10--9-9-9--10--9-10-9--10--9---6--9--5--9----|-----------------|
-------------------------------------------------------9----|-----------------|
-------------------------------------------------------9----|-----------------|
------------------------------------------------------------|-----------------|
------------------------------------------------------------|-----------------|


--------|---------------------------------------------------------------------|
--------|---------------------------------------------------------------------|
--------|---------------------------------------------------------------------|
--------|---------------------------------------------------------------------|
--------|---------------------------------------------------------------------|
--------|-7-7-7-7-7-7-7-7-7-7-7-7-7-7-7-7-7-7-7-7-7-7-7-7-7-7-7--6--7--9-9-9--|
   2nd bass part

------------------------------------------------------------------------------|
------------------------------------------------------------------------------|
------------------------------------------------------------------------------|
------------------------------------------------------------------------------|
------------------------------------------------------------------------------|
-9-9-9-9-9-9-9-9-9-9-9-9-9-9-9-9-9-9-9-9-9-9-9-9--7--9--10-10-10-10-10-10-10--|


------------------------------------------------------------------------------|
------------------------------------------------------------------------------|
------------------------------------------------------------------------------|
------------------------------------------------------------------------------|
-------------------------------------x----------------------------------------|
-10-10-10-10--9--10--13-13-13-13-13--x--10--10--13--9--14-14-14-14-14--14-14--|
                                  xx's replaces the whip sound

--------------------------------------------------------|---------------------|
--------------------------------------------------------|---------------------|
--------------------------------------------------------|---------------------|
--------------------------------------------------------|---------------------|
--------------------------------------------------------|---------------------|
-14-14-14-14-14-14-14-14-14-14-14-14--14-14--14-14-14-7-|---------------------|


-------|----------------------------------------------------------------------|
-------|----------------------------------------------------------------------|
-------|----------------------------------------------------------------------|
-------|----------------------------------------------------------------------|
-------|----------------------------------------------------------------------|
-------|-15-15-15--14--15--14-14\12-12-12-12-12-12-14--12-14-12--14--12-12-12-|
                           v  ^  v  ^  v  ^  v  ^

-----------------------------------------------------------------------------|
-----------------------------------------------------------------------------|
-----------------------------------------------------------------------------|
-----------------------------------------------------------------------------|
-----------------------------------------------------------------------------|
-12-10-10-10--9-9-9-9-9-9-9-9-9-9-9-9-9-9-9-9-9-9-9-9-9-9-9-9-9-9-9-9-9--2---|


-------|----------------------------------------------------------------------|
-------|----------------------------------------------------------------------|
-------|----------------------------------------------------------------------|
-------|----------------------------------------------------------------------|
-------|----------------------------------------------------------------------|
-------|-12-12-12--10--12--10-10-10--9-9-9-9-9--7--9--7\-3--6---2-2-2-2-2-2-2-|

---------------------------------------------|----------------------|---------|
---------------------------------------------|----------------------|---------|
---------------------------------------------|----------------------|---------|
---------------------------------------------|----------------------|---------|
---------------------------------------------|----------------------|---------|
-2-2-2-2-2-2-2-2-2-2-2-2-2-2-2-2-2-2-2-2-2-2-|----------------------|---------|
                                               Guitar part replayed

-------|-----------|----------------------------------------------------------|
-------|-----------|----------------------------------------------------------|
-------|-9-9---x-9-|----------------------------------------------------------|
-------|-9-9---x-9-|----------------------------------------------------------|
-------|-7-7---x-7-|----------------------------------------------------------|
-------|-----------|----------------------------------------------------------|
       Guitar out
Tap to rate this tab
 
# A B C D E F G H I J K L M N O P Q R S T U V W X Y Z