Song name
# A B C D E F G H I J K L M N O P Q R S T U V W X Y Z

Die Aerzte - Himmelblau tab

Einige Tabs hab ich hier schon gefunden, die mir weitergeholfen haben, allerdings waren
immer komisch zu spielen oder unvollständig.
Also wie man sieht muss man die Gitarre einen halben Ton tiefer stimmen, wenn  mans wie
Original spielen will, außerdem hab ich versucht Farins Spielweise nachzuahmen, er
die Barréakkorde mit dem Daumen (F#, G#add9)oder greift Barrés mit dem Ringfinger (E). 
weiß nich ob er die Perkussivschläge auch macht, aber es klingt gut^^.
Für Struktur des Lieds einfach in die anderen Tabs schon.

Intro

D#||-----3--------3--------3--|-----3--------3--------3--|
A#||--------3--------3--------|--------1--------1--------|
F#||--0--------0--------0-----|--2--------2--------2-----|
C#||--------------------------|--------------------------|
G#||--------------------------|--------------------------|
D#||--------------------------|--------------------------|

-----3--------3--------3--|-----3--------3--------3--|
--------1--------1--------|--------0--------0--------|
--0--------0--------0-----|--0--------0--------0-----|
--------------------------|--------------------------|
--------------------------|--------------------------|
--------------------------|--------------------------|


Strophen

---------------------------|---------------------------|
---------------------------|---------------------------|
---------------------------|---------------------------|
---------------------------|---------------------------|
--5----5--5-5-5--5--5--5-5-|--7----7--7-7-7--7--7--7-7-|
--3----3--3-3-3--3--3--3-3-|--5----5--5-5-5--5--5--5-5-|

---------------------------|---------------------------|
---------------------------|---------------------------|
---------------------------|---------------------------|
---------------------------|---------------------------|
--2----2--2-2-2--2--2--2-2-|--3----3--3-3-3--3--3--3-3-|
--0----0--0-0-0--0--0--0-0-|--1----1--1-1-1--1--1--1-1-|


Refrain

  F#                         G#add9
--x----x------x--x-----x--|-----7-----7----7--7------|
--3----3--x-x-3--3--x--3--|--x--5--x--5----5--5--x-x-|
--4----4--x-x-4--4--x--4--|--x--6--x--6----6--6--x-x-|
--5----5--x-x-5--5--x--5--|--x--7--x--7----7--7--x-x-|
--5----5--x-x-5--5--x--5--|--x--x--x--x----x--x--x-x-|
--3----3------3--3-----3--|-----5-----5----5--5------|


  D#m                        E
--x----x------x--x-----x--|-----x------x---x---x---x-------||
--8----8--x-x-8--8--x--8--|--x--10--x--10--10--10--10--x-x-||
--9----9--x-x-9--9--x--9--|--x--10--x--10--10--10--10--x-x-||
--9----9--x-x-9--9--x--9--|--x--10--x--10--10--10--10--x-x-||
--7----7--x-x-7--7--x--7--|--x--8---x--8---8---8---8---x-x-||
--x----x------x--x-----x--|-----x------x---x---x---x-------||
Tap to rate this tab
# A B C D E F G H I J K L M N O P Q R S T U V W X Y Z