Song name
# A B C D E F G H I J K L M N O P Q R S T U V W X Y Z

Dinosaur Jr - Start Choppin tab

-------------------------------------------------------------------------------
		Start Choppin' -Dinosaur JR.
-------------------------------------------------------------------------------
Tabbed by: Omri Cohen
Email: i.m.bleach@gmail.com

  Guitar 1
e|---------------------------(12)-------------------------------------------|
B|--x-x-10---10-10---10---10--10--------------------------------------------|
G|--x-x-9----9--9----9----9---11--------------------------------------------|
D|--x-x-9h11-9--9----9h11-9---12--------------------------------------------|
A|--------------------------------------------------------------------------|
E|--------------------------------------------------------------------------|
 
Guitar 2 licks, starts at 00:12
e|----------------|---------------|---------------|-----------|------14-14-14|
B|----12--10-9-10-|----10--12--14-|-5s7-----------|--5------5-|-17b19--------|
G|--11------------|---9-----------|---9-7-6-------|-6--6h7p6--|--------------|
D|-9--------------|--7------------|---------7-9-7-|-----------|--------------|
A|----------------|---------------|---------------|-----------|--------------|
E|----------------|---------------|---------------|-----------|--------------|

I Aint Telling You A Secret,I Aint Tellng You Good--BYYYYYE
       D                           B    
e|---------------------------------------------------------------------------|
B|---------------------------------------------------14h15p14h15p14h15p14h15-|
G|-----7---------------------------------------------------------------------|
D|-----7-let-ring------------------9-----------------------------------------|
A|-----5---------------------------9-let-ring--------------------------------|
E|---------------------------------7-----------------------------------------|
    A    D A   
e|---------------------------------------------------------------------------|
B|-------3-----------------------------3-------------------------------------|
G|--2-2--2-2---2-4-6-4-6-4-6-4--2-2-2--2-2--2-4-6-4-6-4-6-4--2-2-2-----------|
D|--2-2----2---2-4-4-4-4-4-4-4--2-2-2----2--2-4-4-4-4-4-4-4--2-2-2-----------|
A|---------------------------------------------------------------------------|
E|---------------------------------------------------------------------------|

Im telling you..its not just… to hide
    D           A                 B
e|---------------------------------------------------------------------------|
B|---------------------------------------------------------------------------|
G|--7------------------------------------------------------------------------|
D|--7-----------7-----------------2------------------------------------------|
A|--5-----------7-----------------2------------------------------------------|
E|--------------5-----------------0------------------------------------------|

 This riff is within the "I’m tellin’ you.." chords
e|---------------------------------------------------------------------------|
B|-----------5-----------5---------------------------------------------------|
G|----6--7-6--6-4-6--7-6--6-4------------------------------------------------|
D|----------------------------7----------------------------------------------|
A|---------------------------------------------------------------------------|
E|---------------------------------------------------------------------------|

The solo for this song is mighty fine and I wish someone could tab it. I notices
that I couldn’t find any good tabs for this song on the net so I decided to make
one of my own

| /  slide up
| \  slide down
| h  hammer-on
| p  pull-off
| ~  vibrato
| +  harmonic
| x  Mute note
===============================================================================


For comments advices and/or Viruses email me to

i.m.bleach@gmail.com
Tap to rate this tab
# A B C D E F G H I J K L M N O P Q R S T U V W X Y Z