Song name
# A B C D E F G H I J K L M N O P Q R S T U V W X Y Z

Disengage - Betterman tab

Betterman
Disengage
Look Back EP
Back to Back Records
http://www.backtobackrecords.com/

Tuning: Standard

E||--------------------|
B||--------------------|
G||--------------------|
D||------5-5-4-4-2-2---| x 4
A||--4-4-3-3-2-2-0-0---|
E||--2-2---------------|


E||---------------------------|---------------------------|
B||---------------------------|---------------------------|
G||---------------------------|---------------------------|
D||--4----4--4-4-4--4--4--4-4-|--4--4--4--4-4-4--4--4--4--|
A||--4----4--4-4-4--4--4--4-4-|--4--4--4--4-4-4--4--4--4--|
E||--2----2--2-2-2--2--2--2-2-|--2--2--2--2-2-2--2--2--2--|
                                                               x 4
E||-------------------------|-------------------------|
B||-------------------------|-------------------------|
G||--5----5--5--5--5--5--5--|--4----4--4--4--5--4--2--|
D||--5----5--5--5--5--5--5--|--4----4--4--4--5--4--2--|
A||--3----3--3--3--3--3--3--|--2----2--2--2--3--2--0--|
E||-------------------------|-------------------------|


E||--------------------|
B||--------------------|
G||--------------------|
D||------5-5-4-4-2-2---| x 2
A||--4-4-3-3-2-2-0-0---|
E||--2-2---------------|

End on

E||-----||
B||-----||
G||-----||
D||--4--||
A||--4--||
E||--2--||
Tap to rate this tab
# A B C D E F G H I J K L M N O P Q R S T U V W X Y Z