Song name
# A B C D E F G H I J K L M N O P Q R S T U V W X Y Z

Disturbed - Forsaken tab

Key

~   Let ring
x   Mute
pm  Palm Mute

Intro/verse
|--------------------------------------------------------------------------|
|--------------------------------------------------------------------------|
|--------------------------------------------------------------------------|
|---22--22-22x---33--33-33x--55--55-55x--77--77-77x------------------------|
|---22--22-22x---33--33-33x--55--55-55x--77--77-77x------------------------|
|---00--00-00x---11--11-11x--33--33-33x--55--55-55x------------------------|
      pm           pm          pm          pm

Chorus
|--------------------------------------------------------------------------|
|--------------------------------------------------------------------------|
|------7-7-7~--------------------------------------------------------------|
|------7-7-7~----8-8-8~----7-7-7~----5-5-5~--------------------------------|
|------5-5-5~----8-8-8~----7-7-7~----5-5-5~--------------------------------|
|------5-5-5~----6-6-6~----5-5-5~----3-3-3~--------------------------------|


Outro
|--------------------------------------------------------------------------|
|--------------------------------------------------------------------------|
|--------------------------------------------------------------------------|
|-----7---7---8---8---5---5---7---7----------------------------------------|
|---5---5---5---5---5---5---5---5------------------------------------------|
|--------------------------------------------------------------------------|
This are only the notes for the outro, listen carefully to the song to get the entire for of playing.




To all these people who needs a second chance...but it's so far..
Tap to rate this tab
# A B C D E F G H I J K L M N O P Q R S T U V W X Y Z