Guitaretab - guitar tabs
Song name
# A B C D E F G H I J K L M N O P Q R S T U V W X Y Z

Disturbed - Devour tab

Devour-Disturbed
Believe

Drop Db:
Db Ab Db Gb Bb Eb


Intro:

Fig. 1

e--------------------------------------------------------------------------
b--------------------------------------------------------------------------
g--------------------------------------------------------------------------
d---10---9---7-9-10---10---7-9-10---------10---9---7-9-10---7---5----------
a------------------------------------10-----------------------------6------
d-9----9---9--------9----9--------10----9----9---9--------7---7---7---7-0--

e--------------------------------------------------------------------------
b--------------------------------------------------------------------------
g--------------------------------------------------------------------------
d---10---9---7-9-10---10---7-9-10---------10---9---7-9-10---7---5-------5--
a------------------------------------10-----------------------------6------
d-9----9---9--------9----9--------10----9----9---9--------7---7---7---7----


Verse 1:

gtr. 1

e-----------------------------------------------------------------
b-----------------------------------------------------------------
g-----------------------------------------------------------------
d---10---9---7-9-10---------------10---9---7-9-10---7---5---------
a-----------------------------------------------------------6-----
d-9----9---9--------------------9----9---9--------7---7---7---7-0-

gtr. 2 w/ echo

e-----------------------------------------------------------------
b-------------------------------12-------12b-12~~~~~~~~~~~~~~~~---
g-----------------------------------------------------------------
d-----------------------------------------------------------------
a-----------------------------------------------------------------
d-----------------------------------------------------------------

gtr. 1

e-----------------------------------------------------------------
b-----------------------------------------------------------------
g-----------------------------------------------------------------
d---10---9---7-9-10---------------10---9---7-9-10---7---5-------5-
a-----------------------------------------------------------6-----
d-9----9---9--------------------9----9---9--------7---7---7---7---

gtr. 2 w/ echo

e-----------------------------------------------------------------
b--------------12---12b--10-10-10-10------------------------------
g------------------------------------11---------------------------
d-----------------------------------------------------------------
a-----------------------------------------------------------------
d-----------------------------------------------------------------

play Fig. 1

before chorus

e-----------------------------------------------------------------
b-----------------------------------------------------------------
g-----------------------------------------------------------------
d-9--9--9----9----9--9-----9--9--9----9----9--9--0---2-2--2-2-2-2-
a-9--9--9----9----9--9-----9--9--9----9----9--9--0---2-2--2-2-2-2-
d-9--9--9----9----9--9-----9--9--9----9----9--9--0---2-2--2-2-2-2-

Chorus:

gtr. 1

e----------------------------------------------------------------------------
b----------------------------------------------------------------------------
g-----------------------------------------------2---2--2-2-7---7-7-7-6-6-6-6-
d-11----11--11----11---7---7--7--7--7--7--7--7--0---0--0-0-4---4-4-4-4-4-4-4-
a--9-----9---7-----7---5---5--5--5--5--5--5--5--0---0--0-0-4---4-4-4-4-4-4-4-
d--9-----9---7-----7---5---5--5--5--5--5--5--5--0---0--0-0-4---4-4-4-4-4-4-4-

gtr. 2
[ Tab from: http://www.guitaretab.com/d/disturbed/32483.html ]
e----------------------------------------------------------------------------
b----------------------------------------------------------------------------
g-6------6---6-----6-/11--11-11-11-11-11-11-11--2---2--2-2-7---7-7-7-6-6-6-6-
d-x------x---x-----x---x---x--x--x--x--x--x--x--0---0--0-0-4---4-4-4-4-4-4-4-
a-4------4---4-----4-/-9---9--9--9--9--9--9--9--0---0--0-0-4---4-4-4-4-4-4-4-
d-----------------------------------------------0---0--0-0-4---4-4-4-4-4-4-4-

1st Ending
gtr. 1

e----------------------------------------------------------------------------
b----------------------------------------------------------------------------
g-----------------------------------------------4----4---4-6-----------------
d-11----11--11----11---5---5--5--5--5--5--5--5--2----2---2-4---4-4-4-4-4-4-4-
a--9-----9---7-----7---5---5--5--5--5--5--5--5--2----2---2-4---4-4-4-4-4-4-4-
d--9-----9---7-----7---5---5--5--5--5--5--5--5--2----2---2-4---4-4-4-4-4-4-4-

gtr. 2

e----------------------------------------------------------------------------
b----------------------------------------------------------------------------
g-6------6---6-----6-/11--11-11-11--7--7--7--7--4----4---4-6-----------------
d-x------x---x-----x---x---x--x--x--x--x--x--x--0----2---2-4---4-4-4-4-4-4-4-
a-4------4---4-----4-/-9---9--9--9--5--5--5--5--0----2---2-4---4-4-4-4-4-4-4-
d-----------------------------------------------0----2---2-4---4-4-4-4-4-4-4-

2nd Ending

gtr. 1

e----------------------------------------------------------------------------
b----------------------------------------------------------------------------
g-----------------------------------------------4----4---4-6-----------------
d-11----11--11----11---5---5--5--5--5--5--5--5--2----2---2-4---4-4-4-4-4-2-2-
a--9-----9---7-----7---5---5--5--5--5--5--5--5--2----2---2-4---4-4-4-4-4-2-2-
d--9-----9---7-----7---5---5--5--5--5--5--5--5--2----2---2-4---4-4-4-4-4-2-2-

gtr. 2

e----------------------------------------------------------------------------
b----------------------------------------------------------------------------
g-6------6---6-----6-/11--11-11-11--7--7--7--7--4----4---4-6-----------------
d-x------x---x-----x---x---x--x--x--x--x--x--x--0----2---2-4---4-4-4-4-4-2-2-
a-4------4---4-----4-/-9---9--9--9--5--5--5--5--0----2---2-4---4-4-4-4-4-2-2-
d-----------------------------------------------0----2---2-4---4-4-4-4-4-2-2-

Interlude:

e--------------------------------------------------------------------------
b--------------------------------------------------------------------------
g--------------------------------------------------------------------------
d---10---9---7-9-10---10---7-9-10---------10---9---7-9-10-7----------10----
a------------------------------------10-------------------7----------10----
d-9----9---9--------9----9--------10----9----9---9--------7----------10----

Verse 2: Fig. 1 x2
before chorus
chorus

before bridge

e-----------------------------------------------------------------------
b-----------------------------------------------------------------------
g-----------------------------------------------------------------------
d-----------------------------------------------------------------------
a-----------------------------------------------------------------------
d-9---9-9---9-9-9---9-9-9-9-10-10----9---9-9---9-9-9---9-9-9-9-10-10----

Bridge: x4

e-----------------------------------------------------------------------
b-----------------------------------------------------------------------
g-----------------------------------------------------------------------
d-9---9-9---9-9-9---9-9-9-9-10-10----9---9-9---9-9-9---9-9-9-9-10-10----
a-9---9-9---9-9-9---9-9-9-9-10-10----9---9-9---9-9-9---9-9-9-9-10-10----
d-9---9-9---9-9-9---9-9-9-9-10-10----9---9-9---9-9-9---9-9-9-9-10-10----

Outro:

x4
e---------------------------------------
b---------------------------------------
g---------------------------------------
d---10---9---7-9-10---10---7-9-10-------
a------------------------------------10-
d-9----9---9--------9----9--------10----


thatís all

*from the Disturbed tab book*

trevor jones
timmy91199@yahoo.ca
Related for Devour tab