Song name
# A B C D E F G H I J K L M N O P Q R S T U V W X Y Z

Disturbed - Mine tab

Disturbed
Mine
The Lost Children

Drop the low E to D, then tune everything down a half step:
DbAbDbGbBbEb


0:00 - 0:48
-----------------------------------------------------------------------|
--15--16----------------------------------15--16-------18--13----------|
------------14--13---------------------------------14------------------| x5
-----------------------15--12------------------------------------------|
-----------------------------------------------------------------------|
-----------------------------------------------------------------------|


0:38 - 0:48
--------------------------------------------------------|
--------------------------------------------------------|
--------------------------------------------------------| x2
--0--0--0--0--0---------0--0--0--0--0-------------------|
--0--0--0--0--0---------0--0--0--0--0-------------------|
--0--0--0--0--0---------0--0--0--0--0-------------------|
P.M.***********        **************


0:48 - 1:26
-------------------------------------------------|
-------------------------------------------------|
--------7-----------------------7----------------|
--0--0--7--0--0--8--------0--0--7--0--0--5-------|
--0--0--5--0--0--8--------0--0--5--0--0--5-------|
--0--0-----0--0--8--------0--0-----0--0--5-------|

-------------------------------------------------|
-------------------------------------------------|
--------7----------------------------------------| x4
--0--0--7--0--0--8--------10--10--0---8--8--10---|
--0--0--5--0--0--8--------10--10--0---8--8--10---|
--0--0-----0--0--8--------10--10--0---8--8--10---|


1:27 - 1:36
-------------------------------------------------------------|
-------------------------------------------------------------|
-------------------------------------------------------------|
-------------------------------------------------------------|
------------------3h5--------------3h5-----------------------|
-3p0-0000-5p0-00-------00-3p0-1p0-------0000-3h5-0000-3h5----|
     ****     **       **               ****     ****

--------------------------------------------------------------------|
--------------------------------------------------------------------|
--------------------------------------------------------------------|
--------------------------------------------------------------------|
------------------3h5--------------3h5---------------<5><5><5><5>---|
-3p0-0000-3p0-00-------00-3p0-1p0-------0000-3h5-00-----------------|
     ****     **       **               ****     **  N.H.


1:36 - 1:55
----------------------------------------------------------------|
----------------------------------------------------------------|
----------------------------------------------------------------| x2
----------------------------------------------------------------|
------------------3h5--------------3h5--------------------------|
-3p0-0000-3p0-00-------00-3p0-1p0-------0000-3h5-0000-3h5-------|
     ****     **       **               ****     ****

-------------------------------------------------------------------------|
-------------------------------------------------------------------------|
-------------------------------------------------------------------------|
-------------------------------------------------------7-7-7-7-7-8-8-7---|
------------------3h5-------------3h5------------------7-7-7-7-7-8-8-7---|
-3p0-0000-3p0-00------00-3p0-1p0-------0000-3h5-0000---7-7-7-7-7-8-8-7---|
     ****     **      **               ****     ****


1:55 - 2:14
----------------------------------------------------------|
----------------------------------------------------------|
--------------------------------3-3-3-3--5-5-5--2---------|
--------------------------------3-3-3-3--5-5-5--2---------|
---------8-10-8-7-8-7-5-7-5-3---1-1-1-1--3-3-3--0---------|
-000------------------------------------------------------|
 ***     *  * * * * * * * * *

----------------------------------------------------------|
----------------------------------------------------------|
--------------------------------3-3-3-3--5-5-5--3---------|
--------------------------------3-3-3-3--5-5-5--3---------|
---------8-10-8-7-8-7-5-7-1-3---1-1-1-1--3-3-3--1---------|
-000------------------------------------------------------|
 ***     *  * * * * * * *

-----------------------------------------------------------------------------|
-----------------------------------------------------------------------------|
--------------------------------3-3-3-3--5-5-5--2----------------------------|
--------------------------------3-3-3-3--5-5-5--2---10-10-10-10-10-7-7-7-7-7-|
---------8-10-8-7-8-7-5-7-5-3---1-1-1-1--3-3-3--0---10-10-10-10-10-7-7-7-7-7-|
-000------------------------------------------------10-10-10-10-10-7-7-7-7-7-|
 ***     *  * * * * * * * * *


2:15 - 2:19
--------------------------------------------------------|
--------------------------------------------------------|
--------------------------------------------------------|
--0--0--0--0--0---------0--0--0--0--0-------------------|
--0--0--0--0--0---------0--0--0--0--0-------------------|
--0--0--0--0--0---------0--0--0--0--0-------------------|
  *************         *************


2:19 - 2:36
-------------------------------------------------|
-------------------------------------------------|
--------7-----------------------7----------------|
--0--0--7--0--0--8--------0--0--7--0--0--5-------|
--0--0--5--0--0--8--------0--0--5--0--0--5-------|
--0--0-----0--0--8--------0--0-----0--0--5-------|

-------------------------------------------------|
-------------------------------------------------|
--------7----------------------------------------|
--0--0--7--0--0--8--------10--10--0---8--8--10---|
--0--0--5--0--0--8--------10--10--0---8--8--10---|
--0--0-----0--0--8--------10--10--0---8--8--10---|

-------------------------------------------------|
-------------------------------------------------|
--------7-----------------------7----------------|
--0--0--7--0--0--8--------0--0--7--0--0--5-------|
--0--0--5--0--0--8--------0--0--5--0--0--5-------|
--0--0-----0--0--8--------0--0-----0--0--5-------|

-------------------------------|
-------------------------------|
--------7----------------------|
--0--0--7--0--0--8--------10---|
--0--0--5--0--0--8--------10---|
--0--0-----0--0--8--------10---|


2:38 - 2:57
----------------------------------------------------------------|
----------------------------------------------------------------|
----------------------------------------------------------------| x2
----------------------------------------------------------------|
------------------3h5--------------3h5--------------------------|
-3p0-0000-3p0-00-------00-3p0-1p0-------0000-3h5-0000-3h5-------|
     ****     **       **               ****     ****

---------------------------------------------------------------------------|
---------------------------------------------------------------------------|
---------------------------------------------------------------------------|
----------------------------------------------------------7-7-7-7-7-8-8-7--|
------------------3h5-------------3h5---------------------7-7-7-7-7-8-8-7--|
-3p0-0000-3p0-00------00-3p0-1p0-------0000-3h5-0000-3h5--7-7-7-7-7-8-8-7--|
     ****     **      **               ****     ****


2:58 - 3:18
----------------------------------------------------------|
----------------------------------------------------------|
--------------------------------3-3-3-3--5-5-5--2---------|
--------------------------------3-3-3-3--5-5-5--2---------|
---------8-10-8-7-8-7-5-7-5-3---1-1-1-1--3-3-3--0---------|
-000------------------------------------------------------|
 ***     *  * * * * * * * * *

----------------------------------------------------------|
----------------------------------------------------------|
--------------------------------3-3-3-3--5-5-5--3---------|
--------------------------------3-3-3-3--5-5-5--3---------|
---------8-10-8-7-8-7-5-7-1-3---1-1-1-1--3-3-3--1---------|
-000------------------------------------------------------|
 ***     *  * * * * * * *

-----------------------------------------------------------------------------|
-----------------------------------------------------------------------------|
--------------------------------3-3-3-3--5-5-5--2----------------------------|
--------------------------------3-3-3-3--5-5-5--2---10-10-10-10-10-7-7-7-7-7-|
---------8-10-8-7-8-7-5-7-5-3---1-1-1-1--3-3-3--0---10-10-10-10-10-7-7-7-7-7-|
-000------------------------------------------------10-10-10-10-10-7-7-7-7-7-|
 ***     *  * * * * * * * * *


3:18 - 3:55
-----------------------------------------------------------|
--------------11--10---------------------------------------|
-----------7------------10--7------------------------------|
--------0------------------------6--0---0--6---7--0--------|
-----0--------------------------------0------0-------------|
--0--------------------------------------------------------|

-----------------------------------------------------------|
---------------11--10--------------------------------------|
-----------7------------10--7------------------------------|
--------0------------------------6--0---0--6-------5-------|
-----0--------------------------------0------0--8----------|
--0--------------------------------------------------------|

-----------------------------------------------------------|
---------------11--10--------------------------------------|
-----------7------------10--7------------------------------|
--------0------------------------6--0---0--6---7--0--------|
-----0--------------------------------0------0-------------|
--0--------------------------------------------------------|

------------------------------------------------------|
------------------------------------------------------|
--------7--------------------5------------------------|   x2
-----7-----7----7---7-----5-----5----5---5------------|
--6-----------6---6----3-----------3---3--------------|
------------------------------------------------------|


3:55 - 4:14
----------------------------------------------------------------------------|
----------------------------------------------------------------------------|
----------------------------------------------------------------------------|
-6----7------------------------------6----7-----10-9---------0-6h7-7h9-10p9-|
-------------8------9------5----3-5---------------------8-------------------|
--0000--0000---0000---0000---00-------0000--0000-----00---00----------------|
  ****  ****   ****   ****   **       ****  ****     **   **

----------------------------------------------------------------------------|
----------------------------------------------------------------------------|
----------------------------------------------------------------------------|
-6----7------------------------------6----7-----10-9----10---0-6h7-7h9-10p9-|
-------------8------9------5----3-5-----------------------------------------|
--0000--0000---0000---0000---00-------0000--0000-----00---00----------------|
  ****  ****   ****   ****   **       ****  ****     **   **


4:14 - 5:03
----------------------------------------------------------|
----------------------------------------------------------|
--------------------------------3-3-3-3--5-5-5--2---------|
--------------------------------3-3-3-3--5-5-5--2---------|
---------8-10-8-7-8-7-5-7-5-3---1-1-1-1--3-3-3--0---------|
-000------------------------------------------------------|
 ***     *  * * * * * * * * *

----------------------------------------------------------|
----------------------------------------------------------|
--------------------------------3-3-3-3--5-5-5--3---------|
--------------------------------3-3-3-3--5-5-5--3---------|
---------8-10-8-7-8-7-5-7-1-3---1-1-1-1--3-3-3--1---------|
-000------------------------------------------------------|
 ***     *  * * * * * * *

-----------------------------------------------------------------------------|
-----------------------------------------------------------------------------|
--------------------------------3-3-3-3--5-5-5--2----------------------------|
--------------------------------3-3-3-3--5-5-5--2---10-10-10-10-10-7-7-7-7-7-|
---------8-10-8-7-8-7-5-7-5-3---1-1-1-1--3-3-3--0---10-10-10-10-10-7-7-7-7-7-|
-000------------------------------------------------10-10-10-10-10-7-7-7-7-7-|
 ***     *  * * * * * * * * *

 repeat, second time end with -----
                              -----
                              -----
                              --0--
                              --0--
                              --0--


4:53 - 5:03
-----------------------------------------------------------------------|
--15--16----------------------------------15--16-------18--13----------|
------------14--13---------------------------------14------------------|
-----------------------15--12------------------------------------------|
-----------------------------------------------------------------------|
-----------------------------------------------------------------------|


4:53 - 5:03
--------------------------------------------------------|
--------------------------------------------------------|
--------------------------------------------------------| x2
--0--0--0--0--0---------0--0--0--0--0-------------------|
--0--0--0--0--0---------0--0--0--0--0-------------------|
--0--0--0--0--0---------0--0--0--0--0-------------------|
  *************         *************

That's it! Not all counts are exact for strumming at the end of verses and choruses, but 
listen and you should be able to figure them out.


Hey! [x6]

 Been watching for a long time, seeing the world join forces to the edge of
   calamity
 How many of the wars have started over mankind's area we call religion?
 Too many of our children have died in the never ending fight for territory

 Are we born to violence?
 Can we stop in time?
 They say you will want to remain on your side
 You'll be starting a war now if you cross that line
 Turn around or face my reprisal for I have determined that this is mine

 Hey! [x6]

 Been hurting for a long time feeling my heart torn open from the lack of
   humanity
 Insanity on both sides reaping the path that guarantees our own extinction
 Hate added to the stockpile filling the world with enemies, a constant
   battle

 In the face of violence, they omit their pride
 They say you will want to remain on your side
 You'll be starting a war now if you cross that line
 Turn around or face my reprisal for I have determined that this is mine

 Ooooohhhhhh [x2]

 You will want to remain on your side
 You'll be starting a war now if you cross that line
 Turn around and face my reprisal for I have determined that this is mine

 We will not be broken this time
 We will force the whole world to testify
 Stand your ground or face our reprisal for we have determined that this
   is...
Tap to rate this tab
# A B C D E F G H I J K L M N O P Q R S T U V W X Y Z