Song name
# A B C D E F G H I J K L M N O P Q R S T U V W X Y Z

Dream Theater - The Best Of Times tab

D:-----------------------------------------|
A:0-2-3~-3/7~--8~---2-3/5~--10~-8~-7-5-7~--|
F:-----------------------------------------|
C:-----------------------------------------|
G:-----------------------------------------|
D:-----------------------------------------|

D:---------------------------------------2~------|
A:-3~-2~-3/7~--7~-8~-5~--3--2-------------2~-----|
F:----------------------------4~-/6~-3~----3~----|
C:------------------------------------------4~---|
G:-------------------------------------------4~--|
D:--------------------------------------------0~-|

D:---------------------------------------------------------------|
A:-------3--3/7-/10-/12-8--7-7h8p7/5--2-3/5-10----8--7-----------|
F:---3-4-----------------------------------------8--8----6--7----|
C:-/4---------------------------------------------------7--------|
G:---------------------------------------------------------------|
D:---------------------------------------------------------------|

D:-----------------------------1---2~-----|
A:-----3-3/7-7~-7h8p7/5--3-5\2------2~----|
F:--3-4------------------------------3~---|
C:/4----------------------------------4~--|
G:-------------------------------------4~-|
Tap to rate this tab
 
# A B C D E F G H I J K L M N O P Q R S T U V W X Y Z