Song name
# A B C D E F G H I J K L M N O P Q R S T U V W X Y Z

Dream Theater - The Best Of Times tab

The Best of Times (Solo) - Written by John Petrucci (Dream Theater)

Hey guys, this is like my first tab, so don't bash on me...


------------------------------------------------|
------12-13-15/17----17b18\---------------------|
--/14-------------------------------------------|
------------------------------------------------|
------------------------------------------------|
------------------------------------------------|

------------------------------------------------|
------15-18b20-17b18--17-15-17\-----------------|
--/16-------------------------------------------|
------------------------------------------------|
------------------------------------------------|
------------------------------------------------|

------------------------------------------------|
--13-12-13-15/17--17b18--15---13----------------|
------------------------------------------------|
------------------------------------------------|
------------------------------------------------|
------------------------------------------------|

------------------------------------------------|
-12b13----12\--------9/10---10b12--9\-----------|
------------------------------------------------|
------------------------------------------------|
------------------------------------------------|
------------------------------------------------|

---------------12--13/15--17-13-12-13p12--------|
---------12-13-----------------------------15\--|
------14----------------------------------------|
--/14-------------------------------------------|
------------------------------------------------|
------------------------------------------------|

------------------------------------------------|
-------15-18b20-18--18h20-17--15h17-13\---------|
-/16--------------------------------------------|
------------------------------------------------|
------------------------------------------------|
------------------------------------------------|

------------------------------------------------|
-/13-12-13-15b17--15-13-15\------------------12-|
----------------------------------------/14-----|
------------------------------------------------|
------------------------------------------------|
------------------------------------------------|

------------------------------------------------|
-12h14p12ph14 (trill)---12\------------------12-|
-----------------------------------------/14----|
------------------------------------------------|
------------------------------------------------|
------------------------------------------------|

-----------------------------------15~----------|
-13-----12-13-15-----13-12----------------------|
----12------------12----------------------------|
------------------------------------------------|
------------------------------------------------|
------------------------------------------------|
Tap to rate this tab
# A B C D E F G H I J K L M N O P Q R S T U V W X Y Z