Song name
# A B C D E F G H I J K L M N O P Q R S T U V W X Y Z

Dream Theater - The Best Of Times tab

 The Best Of Times                


                                Dream Theater
Pista 1



     Q    Q    Q      Q     
E||------------------------|
B||------------1----3g5----|
G||--2----4----------------|
D||------------------------|
A||------------------------|
E||------------------------|


  Q    H.              Q     Q    Q    Q     
--------------------|-------------3---------|
--L----6------------|--0----/3---------6----|
--------------------|-----------------------|
--------------------|-----------------------|
--------------------|-----------------------|
--------------------|-----------------------|


  Q    S S H        E   
-----------------------|
--L----5-3-5--------L--|
-----------------------|
-----------------------|
-----------------------|
-----------------------|


  Q    H         Q       H        E  Q.      
----------------------|---------------------|
----------------/5----|--5--------6--3------|
--4----5--------------|---------------------|
----------------------|---------------------|
----------------------|---------------------|
----------------------|---------------------|


  H        H           H         E  Q.      
--------------------|----------------------|
--1--------0--------|----------------------|
--------------------|--2--------/4--1------|
--------------------|----------------------|
--------------------|----------------------|
--------------------|----------------------|


  Am                     
  v                      
  H        S S S S Q     
--0---------------------|
--1---------------------|
--2----------2-4-5-L----|
--2--------2------------|
--0---------------------|
------------------------|


    Q      Q.      E  Q     
---------------------------|
--3g5----6g8------10--6----|
---------------------------|
---------------------------|
---------------------------|
---------------------------|


  E.  T  T Q    Q    Q     
--------------------------|
--5---6p-5-3----0----3----|
--------------------------|
--------------------------|
--------------------------|
--------------------------|


        ^        ^     
   Q    H        Q     
----------------------|
--/8----6--------5----|
--------7--------7----|
----------------------|
----------------------|
----------------------|


  H        S S S S Q     
------------------------|
------------------------|
--1----------2-4-5-L----|
--2--------2------------|
------------------------|
------------------------|


   E  Q.     E  Q.      
-----------------------|
--/5--5------6--3------|
-----------------------|
-----------------------|
-----------------------|
-----------------------|


                             Am            
                             v             
  H        Q    Q       Q    H.            
---------------------|-------0------------|
--1--------3----0----|--4----1------------|
---------------------|-------2------------|
---------------------|-------2------------|
---------------------|-------0------------|
---------------------|--------------------|


---------------||
---------------||
---------------||
---------------||
---------------||
---------------||




Duration Legend
---------------
W - whole
H - half
Q - quarter
E - 8th
S - 16th
T - 32nd
X - 64th
. - note dotted
|-n-|  - n-tuplets


Tablature Legend
----------------
L - tied note
x - dead note
g - grace note
(n) - ghost note
> - accentuded note
NH - natural harmonic
AH - artificial harmonic
TH - tapped harmonic
SH - semi harmonic
PH - pitch harmonic
h - hammer on
p - pull off
b - bend
br - bendRelease
pb - preBend
pbr - preBendRelease
brb - bendReleaseBend
\n/ - tremolo bar dip
\n - tremolo bar dive
-/n - tremolo bar Release up
/n\ - tremolo bar inverted dip
/n - tremolo bar return
-\n - tremolo bar Release down
S - shift slide
s - legato slide
/ -  slide into from below or out of upwards
\ -  slide into from above or out of downwards
~ - vibrato
W - wide vibrato
tr - trill
TP - tremolo picking
T - tapping
S - slap
P - pop
< - fade in
^ - brush up
v - brush down
Tap to rate this tab
# A B C D E F G H I J K L M N O P Q R S T U V W X Y Z