Song name
# A B C D E F G H I J K L M N O P Q R S T U V W X Y Z

Dry Kill Logic - Goodnight tab

 -------------------------------------------------------------------------------
			     Goodnight - Dry Kill Logic
-------------------------------------------------------------------------------

Tabbed by:Adrian Pearson
Email: flip_master8@hotmail.com
Tuning: Standard (EADGBE)
Album: Darker Side of Nonsense
Date: February 12th 2007

 /  slide up
 \  slide down
 h  hammer-on
 p  pull-off
 ~  vibrato
 +  harmonic
 x  Mute note

This song is really easy to learn and even easier if you listen to the
song as you learn it.  This is my first tab so it might not be 100% right
but its damn close. I noticed some problems with some other tabs for
this song so i decided to make my own.  i hope you have fun with it

Riff A                                                             __
E|-0--------------------------------------------------------------   |
B|---0h1p0----0h1-------3p1-----3-----3-1-----1-0-----0-0h1-------   |
G|---------0------0---------0-----0-------0-------0-----0---0-----   |
D|-2----------------2---------2-----2-------2-------2---------2---   |
A|------------3-------3-------------------------------------------   |
E|----------------------------------------------------------------   |
                                                                     |
Riff B                                                               | x3
E|-0--------------------3p0~--------------------------------------   |
B|---0h1p0----0h1---------------3-----1-----0-----1-----3-1-0-----   |
G|---------0------0---------0-----0-----0-----0-----0---------0---   |
D|-2----------------2---------2-----2-----2-----2-----2-----------   |
A|------------3-------3-------------------------------------------   |
E|---------------------------------------------------------------- __|

After playing riff A and B 3 times, repeat riff A again but instead of
riff B, play the following riff.  Its at the end of the verse. The (*)
indicates the upwards strum of the C chord.

Riff C          *     *   *     * *   *     *   *
E|-0----------0-0-0-0-0-0-0-0-0-0-0-0-0-0-0-0-0-0---|
B|---0h1p0----1-1-1-1-1-1-1-1-1-1-1-1-1-1-1-1-1-1---|
G|---------0--0-0-0-0-0-0-0-0-0-0-0-0-0-0-0-0-0-0---|
D|-2----------2-2-2-2-2-2-2-2-2-2-2-2-2-2-2-2-2-2---|
A|------------3-3-3-3-3-3-3-3-3-3-3-3-3-3-3-3-3-3---|
E|--------------------------------------------------|

The strumming pattern may not be 100% right, listen to the strumming
in the song a couple times and you'll get it in no time. Next...

Bridge
E|-----------------------------------------------------------------|
B|-----------------------------------------------------------------|
G|-------0-----0------0-----0----------0-------------0--------0----|
D|-----9-----9------7-----9-------10-------10------5---5----4---4--|
A|---7-----7------5-----7-----7-8----8---8----8--3--------2--------|
E|-0------------0--------------------------------------------------|

Strum the following chords in that order with their respective strumming
patterns.  Once again listen to the song.

    Em    Cadd9    Em11    Cadd 9
E|----------3-------7--------3------|
B|----------3-------7--------3------|
G|--0-------0-------7--------0------|
D|--2-------2-------7--------2------|
A|--2-------3-------7--------3------|
E|--0-------x-------0--------x------|

Next, repeat the previous riffs in this order

Riff A    x2
Riff B    x1
Riff A    x1
Riff B    x1
Riff C    x1
Bridge    x2

After this we repeat the bridge again twice but with a minor change,
here it is with the change added.

Bridge
E|-----------------------------------------------------------------|
B|-----------------------------------------------------------------|
G|-------0-----0------0-----0----------0-------------0--------0----|
D|-----9---9--------7-----9-------10-------10------5---5----4---4--|
A|---7-------7----5-----7-----7-8----8---8----8--3--------2--------|
E|-0------------0--------------------------------------------------|

    Em    Cadd9    Em11    Cadd9
E|----------3-------7--------3------|
B|----------3-------7--------3------|
G|--0-------0-------7--------0------|
D|--2-------2-------7--------2------|
A|--2-------3-------7--------3------|
E|--0-------x-------0--------x------|

After playing this like you did earlier in the song, simply alternate between
the Em11 chord and the Cadd9 chords.

Riff A    x1
Riff B    x1
Riff A    x1

E|-0--------0------------------------|
B|---0h1p0--1-(strum appropriately)--|
G|----------0------------------------|
D|-2--------2------------------------|
A|----------3------------------------|
E|-----------------------------------|

And finish off with:

E|------------0--|
B|------------1--|
G|-------0----0--|
D|---0h4---4--2--|
A|-5----------3--|
E|---------------|
Tap to rate this tab
# A B C D E F G H I J K L M N O P Q R S T U V W X Y Z