Song name
# A B C D E F G H I J K L M N O P Q R S T U V W X Y Z

Dry Kill Logic - Nightmare tab

This is the 100% correct tab
enjoy!

Drop C Tuning C-G-C-F-A-D
Intro: Mild Distorstion

C-6-5-0-3-0-6-5-0-3-0-5-------------6-5-0-3-0-6-5-0-3-0-5/6-----------------x2
G-----------------------------------------------------------------------------
C-----------------------------------------------------------------------------
F-----------------------------------------------------------------------------
A-----------------------------------------------------------------------------
D-----------------------------------------------------------------------------

Then

C-6-5-0-3-0-3-0-5-6 x4
G------------------
C------------------
F------------------
A------------------
D------------------

Then Heavy Distortion (CHORUS)and main riff

C-6-5-0-3-0-3-0-5-6-\
G-6-5-0-3-0-3-0-5-6-/  X4
C-------------------
F-------------------
A-------------------
D-------------------

Verse

C-0-0--0-0-0-1-3------0-0--0-0-0-1-X-X
G-0-0--0-0-0-1-3------0-0--0-0-0-1-X-X
C-------------------------------------
F-------------------------------------
A-------------------------------------
D-------------------------------------

Bridge

--PM--PM--PM--PM--PM--
C-0-0-0-0-0-0-0-0-0-0---------------
G-----------------------------------
C-----------------------------------       x2
F-----------------------------------
A-----------------------2-2-2-2-2-2-
D-----------------------------------

Outro is main riff
Tap to rate this tab
# A B C D E F G H I J K L M N O P Q R S T U V W X Y Z