Song name
# A B C D E F G H I J K L M N O P Q R S T U V W X Y Z

Dwarves - Lets Fuck tab

-------------------------------------------------------------------------------
Let's Fuck - The Dwarves
Blood Guts And Pussy
-------------------------------------------------------------------------------
Tabbed by: axeslash
Email: holmzito@yahoo.com

Tuning: EADGBE

e|------------------|    e|------------------------------|
B|------------------|    B|------------------------------|
G|------------------|    G|------------------------------|
D|------------------|    D|------------------------------|
A|-7-7-7-7-7-7-7-7-7|    A|-7--10--9--5--7-7-X-x-X-X-X-X-|
E|-5-5-5-5-5-5-5-5-5| x6 E|-5---8--7--3--5-5-X-X-X-X-X-X-|

e|------------------|    e|---------------------------|
B|------------------|    B|---------------------------|
G|------------------|    G|---------------------------|
D|------------------|    D|---------------------------|
A|-7-7-7-7-7-7-7-7-7|    A|-7--10--9--5--7--10--9--7--|
E|-5-5-5-5-5-5-5-5-5| x6 E|-5---8--7--3--5---8--7--5--|

e|-----------------------------------------------------------------|
B|-----------------------------------------------------------------|
G|-----------------------------------------------------------------|
D|-----------------5-5-5-5-5-5-5-5-7-7-7-7-7-7-7-7-7-7-7-7-7-7-7-7-|
A|-5-5-5-5-5-5-5-5-3-3-3-3-3-3-3-3-5-5-5-5-5-5-5-5-5-5-5-5-5-5-5-5-|
E|-3-3-3-3-3-3-3-3-------------------------------------------------|

e|-----------------------------------------------------------------|
B|-----------------------------------------------------------------|
G|-----------------------------------------------------------------|
D|-----------------5-5-5-5-5-5-5-5---------------------------------|
A|-5-5-5-5-5-5-5-5-3-3-3-3-3-3-3-3-7-7-7-7-7-7-7-7-7-7-7-7-7-7-7-7-|
E|-3-3-3-3-3-3-3-3-----------------5-5-5-5-5-5-5-5-5-5-5-5-5-5-5-5-|

e|------------------------------|    e|-----------------|
B|------------------------------|    B|-----------------|
G|------------------------------|    G|-----------------|
D|------------------------------|    D|-----------------|
A|-7--10--9--5--7-7-X-x-X-X-X-X-|    A|-7-7-7-7-7-7-7-7-|
E|-5---8--7--3--5-5-X-X-X-X-X-X-| x2 E|-5-5-5-5-5-5-5-5-| x12

e|------------------------------|    e|----------------------------------------------|
B|------------------------------|    B|----------------------------------------------|
G|------------------------------|    G|----------------------------------------------|
D|------------------------------|    D|----------------------------------------------|
A|-7--10--9--5--7-7-X-x-X-X-X-X-|    A|-7--10--9--5--7--10--9--5--7--10--9--7--7--7--|
E|-5---8--7--3--5-5-X-X-X-X-X-X-| x2 E|-5---8--7--3--5---8--7--3--5---8--7--5--5--5--|


| /  slide up
| \  slide down
| h  hammer-on
| p  pull-off
| ~  vibrato
| +  harmonic
| x  Mute note
===============================================================================
Tap to rate this tab
# A B C D E F G H I J K L M N O P Q R S T U V W X Y Z