Song name
# A B C D E F G H I J K L M N O P Q R S T U V W X Y Z

Electric Wizard - Dunwich tab

song by ELECTRIC WIZARD
from album WITHCULT TODAY
tabbed by Waltteri Savolainen, all corrections: waltteri_savolainenAThotmail.com

|------------------------------------------------------------------------|
|------------------------------------------------------------------------|
|------------------------------------------------------------------------|
|------------------------------------------------------------------------|
|-9---9---5------9---8-9-8-----------------------------------------------|
|-7---7-----------7---6-7-6----------------------------------------------|


|------------------------------------------------------------------------|
|------------------------------------------------------------------------|
|------------------------------------------------------------------------|
|---------------------------------------------7---6/7/6------------------|
|-9---9---5------9---8-9-8---5---5-----5---4/5/4-------------------------|
|-7---7-----------7---6-7-6---3---3--------------------------------------|

|------------------------------------------------------------------------|
|------------------------------------------------------------------------|
|------------------------------------------------------------------------|
|-4------4------7---7-----------7---7---6/7/6----------------------------|
|-2------2------5---5---5------5---5---4/5/4-----------------------------|
|--------------------------3---------------------------------------------|

|------------------------------------------------------------------------|
|------------------------------------------------------------------------|
|------------------------------------------------------------------------|
|-9-9-9-9-7-7-7-7--------------------------------------------------------|
|-7-7-7-7-5-5-5-5-9-9-9-9-9-9-9-9----------------------------------------|
|-----------------------7-7-7-7-7-7-7-7----------------------------------|
Tap to rate this tab
 
# A B C D E F G H I J K L M N O P Q R S T U V W X Y Z