Song name
# A B C D E F G H I J K L M N O P Q R S T U V W X Y Z

Eminem - Mockingbird tab

This is how you play the song mockingbird by eminem. It's extremely easy. Enjoy!

----------------------------------------------------------------------------
			     SONG NAME - Band Name
----------------------------------------------------------------------------
Tabbed by: fenderbender74
Email: jshballerboy@yahoo.com

Tuning:Regular

e|--3-3-3-5-3-2-2--2-0--0-------------3-3-3-5-3-2-2--2-0--0----------------|
B|-0----------------------0-0--------0----------------------0-0------------|
G|---------------------------2-0-2-4----------------------------2-0-2-0----|
D|---------------------------------------------------------------------4-2-|
A|-------------------------------------------------------------------------|
E|-------------------------------------------------------------------------|

Just repeat that riff throughout the song. Like I said, it's incredibly easy. Please, 
please post your comments or corrections, if there are any. ROCK ON!!!

| /  slide up
| \  slide down
| h  hammer-on
| p  pull-off
| ~  vibrato
| +  harmonic
| x  Mute note
============================================================================
Tap to rate this tab
 
# A B C D E F G H I J K L M N O P Q R S T U V W X Y Z